0
SECTION
2
HEADER
9
$ACADVER
1
AC1024
9
$HANDSEED
5
41F
9
$SORTENTS
280
127
0
ENDSEC
0
SECTION
2
CLASSES
0
CLASS
1
SORTENTSTABLE
2
AcDbSortentsTable
3
ObjectDBX Classes
90
0
91
1
280
0
281
0
0
ENDSEC
0
SECTION
2
TABLES
0
TABLE
2
VPORT
5
1
100
AcDbSymbolTable
70
1
0
VPORT
5
25
330
1
100
AcDbSymbolTableRecord
100
AcDbViewportTableRecord
2
*Active
70
0
10
0.000000
20
0.000000
11
1.000000
21
1.000000
12
0.500000
22
0.500000
13
0.000000
23
0.000000
14
0.500000
24
0.500000
15
0.500000
25
0.500000
16
0.000000
26
0.000000
36
0.000000
17
75.663210
27
92.893346
37
0.000000
40
219.131466
41
2.000000
42
50.000000
43
0.000000
44
0.000000
50
0.000000
51
0.000000
72
1000
73
1
71
0
74
3
75
0
76
1
77
0
78
0
79
0
281
0
65
1
110
0.000000
120
0.000000
130
0.000000
111
1.000000
121
0.000000
131
0.000000
112
0.000000
122
1.000000
132
0.000000
146
0.000000
60
3
61
5
292
1
282
1
141
0.000000
142
0.000000
63
250
421
3355443
0
ENDTAB
0
TABLE
2
LAYER
5
3
100
AcDbSymbolTable
70
5
0
LAYER
5
23
330
3
100
AcDbSymbolTableRecord
100
AcDbLayerTableRecord
2
0
70
0
62
7
6
Continuous
370
0
390
0
347
0
0
LAYER
5
29
330
3
100
AcDbSymbolTableRecord
100
AcDbLayerTableRecord
2
1
70
0
62
7
6
Continuous
370
0
390
0
347
0
0
LAYER
5
7F
330
3
100
AcDbSymbolTableRecord
100
AcDbLayerTableRecord
2
2
70
0
62
7
6
Continuous
370
0
390
0
347
0
0
LAYER
5
CF
330
3
100
AcDbSymbolTableRecord
100
AcDbLayerTableRecord
2
defpoints
70
0
62
7
290
0
6
Continuous
370
0
390
0
347
0
0
LAYER
5
D4
330
3
100
AcDbSymbolTableRecord
100
AcDbLayerTableRecord
2
Eagleview - 2D Roof Facets
70
0
62
7
6
Continuous
370
0
390
0
347
0
0
ENDTAB
0
TABLE
2
STYLE
5
5
100
AcDbSymbolTable
70
1
0
STYLE
5
22
330
5
100
AcDbSymbolTableRecord
100
AcDbTextStyleTableRecord
2
Standard
70
0
40
0.000000
41
0.000000
50
0.000000
71
0
42
0.000000
3

4

0
ENDTAB
0
TABLE
2
LTYPE
5
7
100
AcDbSymbolTable
70
2
0
LTYPE
5
20
330
7
100
AcDbSymbolTableRecord
100
AcDbLinetypeTableRecord
2
ByLayer
70
0
3

72
65
40
0.000000
74
0
0
LTYPE
5
21
330
7
100
AcDbSymbolTableRecord
100
AcDbLinetypeTableRecord
2
ByBlock
70
0
3

72
65
40
0.000000
74
0
0
ENDTAB
0
TABLE
2
APPID
5
B
100
AcDbSymbolTable
70
2
0
APPID
5
24
330
B
100
AcDbSymbolTableRecord
100
AcDbRegAppTableRecord
2
ACAD
70
0
0
APPID
5
CD
330
B
100
AcDbSymbolTableRecord
100
AcDbRegAppTableRecord
2
EVT
70
0
0
ENDTAB
0
TABLE
2
DIMSTYLE
5
D
100
AcDbSymbolTable
100
AcDbDimStyleTable
71
2
0
ENDTAB
0
TABLE
2
VIEW
5
F
100
AcDbSymbolTable
0
ENDTAB
0
TABLE
2
UCS
5
10
100
AcDbSymbolTable
0
ENDTAB
0
TABLE
2
BLOCK_RECORD
5
11
100
AcDbSymbolTable
70
2
0
BLOCK_RECORD
5
1C
102
{ACAD_XDICTIONARY
360
41D
102
}
330
11
100
AcDbSymbolTableRecord
100
AcDbBlockTableRecord
2
*Model_Space
340
0
70
0
280
1
281
0
0
BLOCK_RECORD
5
1F
330
11
100
AcDbSymbolTableRecord
100
AcDbBlockTableRecord
2
*Paper_Space
340
0
70
0
280
1
281
0
0
ENDTAB
0
ENDSEC
0
SECTION
2
BLOCKS
0
BLOCK
5
1A
330
1C
100
AcDbEntity
100
AcDbBlockBegin
2
*Model_Space
70
0
3
*Model_Space
0
ENDBLK
5
1B
330
1C
100
AcDbEntity
100
AcDbBlockEnd
0
BLOCK
5
1D
330
1F
100
AcDbEntity
100
AcDbBlockBegin
2
*Paper_Space
70
0
3
*Paper_Space
0
ENDBLK
5
1E
330
1F
100
AcDbEntity
100
AcDbBlockEnd
0
ENDSEC
0
SECTION
2
ENTITIES
0
LINE
5
28
330
1C
100
AcDbEntity
8
1
6
Continuous
62
3
100
AcDbLine
10
44.947718
20
76.711957
30
0.000000
11
54.748258
21
70.706178
31
-0.000000
210
0.000000
220
0.000000
230
1.000000
0
LINE
5
2A
330
1C
100
AcDbEntity
8
1
6
Continuous
62
3
100
AcDbLine
10
81.316693
20
85.443376
30
13.664539
11
44.947718
21
76.711957
31
0.000000
210
0.000000
220
0.000000
230
1.000000
0
LINE
5
2B
330
1C
100
AcDbEntity
8
1
6
Continuous
62
3
100
AcDbLine
10
54.748258
20
70.706178
30
-0.000000
11
83.214074
21
77.540216
31
10.695167
210
0.000000
220
0.000000
230
1.000000
0
LINE
5
2C
330
1C
100
AcDbEntity
8
1
6
Continuous
62
3
100
AcDbLine
10
83.214074
20
77.540216
30
10.695167
11
81.316693
21
85.443376
31
13.664539
210
0.000000
220
0.000000
230
1.000000
0
LINE
5
2D
330
1C
100
AcDbEntity
8
1
6
Continuous
62
3
100
AcDbLine
10
44.947718
20
76.711957
30
0.000000
11
51.849088
21
87.973969
31
0.000000
210
0.000000
220
0.000000
230
1.000000
0
LINE
5
2E
330
1C
100
AcDbEntity
8
1
6
Continuous
62
3
100
AcDbLine
10
85.655606
20
92.523838
30
13.664539
11
81.316693
21
85.443376
31
13.664539
210
0.000000
220
0.000000
230
1.000000
0
LINE
5
2F
330
1C
100
AcDbEntity
8
1
6
Continuous
62
3
100
AcDbLine
10
51.849088
20
87.973969
30
0.000000
11
53.015198
21
87.259376
31
0.706617
210
0.000000
220
0.000000
230
1.000000
0
LINE
5
30
330
1C
100
AcDbEntity
8
1
6
Continuous
62
3
100
AcDbLine
10
53.015198
20
87.259376
30
0.706617
11
51.963745
21
85.543562
31
0.706617
210
0.000000
220
0.000000
230
1.000000
0
LINE
5
31
330
1C
100
AcDbEntity
8
1
6
Continuous
62
3
100
AcDbLine
10
51.963745
20
85.543562
30
0.706617
11
50.066722
21
83.979703
31
0.293095
210
0.000000
220
0.000000
230
1.000000
0
LINE
5
32
330
1C
100
AcDbEntity
8
1
6
Continuous
62
3
100
AcDbLine
10
50.066722
20
83.979703
30
0.293095
11
85.655606
21
92.523838
31
13.664539
210
0.000000
220
0.000000
230
1.000000
0
LINE
5
33
330
1C
100
AcDbEntity
8
1
6
Continuous
62
3
100
AcDbLine
10
80.401037
20
72.949757
30
10.695167
11
83.214074
21
77.540216
31
10.695167
210
0.000000
220
0.000000
230
1.000000
0
LINE
5
34
330
1C
100
AcDbEntity
8
1
6
Continuous
62
3
100
AcDbLine
10
85.655606
20
92.523838
30
13.664539
11
94.303888
21
56.501152
31
0.130108
210
0.000000
220
0.000000
230
1.000000
0
LINE
5
35
330
1C
100
AcDbEntity
8
1
6
Continuous
62
3
100
AcDbLine
10
94.303888
20
56.501152
30
0.130108
11
94.376511
21
57.858423
31
0.464521
210
0.000000
220
0.000000
230
1.000000
0
LINE
5
36
330
1C
100
AcDbEntity
8
1
6
Continuous
62
3
100
AcDbLine
10
94.376511
20
57.858423
30
0.464521
11
96.314082
21
61.020253
31
0.464521
210
0.000000
220
0.000000
230
1.000000
0
LINE
5
37
330
1C
100
AcDbEntity
8
1
6
Continuous
62
3
100
AcDbLine
10
96.314082
20
61.020253
30
0.464521
11
97.115063
21
60.549259
31
-0.015484
210
0.000000
220
0.000000
230
1.000000
0
LINE
5
38
330
1C
100
AcDbEntity
8
1
6
Continuous
62
3
100
AcDbLine
10
97.115063
20
60.549259
30
-0.015484
11
87.235075
21
44.483941
31
-0.000000
210
0.000000
220
0.000000
230
1.000000
0
LINE
5
39
330
1C
100
AcDbEntity
8
1
6
Continuous
62
3
100
AcDbLine
10
87.235075
20
44.483941
30
-0.000000
11
80.401037
21
72.949757
31
10.695167
210
0.000000
220
0.000000
230
1.000000
0
LINE
5
3A
330
1C
100
AcDbEntity
8
1
6
Continuous
62
3
100
AcDbLine
10
51.935221
20
66.115719
30
-0.000000
11
54.748258
21
70.706178
31
-0.000000
210
0.000000
220
0.000000
230
1.000000
0
LINE
5
3B
330
1C
100
AcDbEntity
8
1
6
Continuous
62
3
100
AcDbLine
10
80.401037
20
72.949757
30
10.695167
11
51.935221
21
66.115719
31
-0.000000
210
0.000000
220
0.000000
230
1.000000
0
LINE
5
3C
330
1C
100
AcDbEntity
8
1
6
Continuous
62
3
100
AcDbLine
10
87.235075
20
44.483941
30
-0.000000
11
79.912019
21
48.971516
31
-0.000000
210
0.000000
220
0.000000
230
1.000000
0
LINE
5
3D
330
1C
100
AcDbEntity
8
1
6
Continuous
62
3
100
AcDbLine
10
67.458675
20
56.602935
30
-0.000000
11
51.935221
21
66.115719
31
-0.000000
210
0.000000
220
0.000000
230
1.000000
0
LINE
5
3E
330
1C
100
AcDbEntity
8
1
6
Continuous
62
3
100
AcDbLine
10
79.912019
20
48.971516
30
-0.000000
11
78.250958
21
60.142546
31
4.472766
210
0.000000
220
0.000000
230
1.000000
0
LINE
5
3F
330
1C
100
AcDbEntity
8
1
6
Continuous
62
3
100
AcDbLine
10
78.250958
20
60.142546
30
4.472766
11
67.458675
21
56.602935
31
-0.000000
210
0.000000
220
0.000000
230
1.000000
0
LINE
5
40
330
1C
100
AcDbEntity
8
1
6
Continuous
62
3
100
AcDbLine
10
78.250958
20
60.142546
30
4.472766
11
77.116732
21
58.291659
31
4.472766
210
0.000000
220
0.000000
230
1.000000
0
LINE
5
41
330
1C
100
AcDbEntity
8
1
6
Continuous
62
3
100
AcDbLine
10
67.791595
20
52.712126
30
-0.101343
11
75.903022
21
47.741437
31
-0.101343
210
0.000000
220
0.000000
230
1.000000
0
LINE
5
42
330
1C
100
AcDbEntity
8
1
6
Continuous
62
3
100
AcDbLine
10
63.706678
20
106.622830
30
13.950299
11
50.066722
21
83.979703
31
0.293095
210
0.000000
220
0.000000
230
1.000000
0
LINE
5
43
330
1C
100
AcDbEntity
8
1
6
Continuous
62
3
100
AcDbLine
10
94.303888
20
56.501152
30
0.130108
11
108.520341
21
79.160982
31
13.950299
210
0.000000
220
0.000000
230
1.000000
0
LINE
5
44
330
1C
100
AcDbEntity
8
1
6
Continuous
62
3
100
AcDbLine
10
108.520341
20
79.160982
30
13.950299
11
63.706678
21
106.622830
31
13.950299
210
0.000000
220
0.000000
230
1.000000
0
LINE
5
45
330
1C
100
AcDbEntity
8
1
6
Continuous
62
3
100
AcDbLine
10
117.447800
20
93.729271
30
5.407253
11
108.520341
21
79.160982
31
13.950299
210
0.000000
220
0.000000
230
1.000000
0
LINE
5
46
330
1C
100
AcDbEntity
8
1
6
Continuous
62
3
100
AcDbLine
10
63.706678
20
106.622830
30
13.950299
11
77.398710
21
128.281081
31
1.139918
210
0.000000
220
0.000000
230
1.000000
0
LINE
5
47
330
1C
100
AcDbEntity
8
1
6
Continuous
62
3
100
AcDbLine
10
121.675901
20
91.138287
30
5.407253
11
117.447800
21
93.729271
31
5.407253
210
0.000000
220
0.000000
230
1.000000
0
LINE
5
48
330
1C
100
AcDbEntity
8
1
6
Continuous
62
3
100
AcDbLine
10
127.326465
20
100.359169
30
0.000000
11
121.675901
21
91.138287
31
5.407253
210
0.000000
220
0.000000
230
1.000000
0
LINE
5
49
330
1C
100
AcDbEntity
8
1
6
Continuous
62
3
100
AcDbLine
10
123.516172
20
102.694119
30
0.000000
11
127.326465
21
100.359169
31
0.000000
210
0.000000
220
0.000000
230
1.000000
0
LINE
5
4A
330
1C
100
AcDbEntity
8
1
6
Continuous
62
3
100
AcDbLine
10
106.724891
20
98.662889
30
6.105304
11
123.516172
21
102.694119
31
0.000000
210
0.000000
220
0.000000
230
1.000000
0
LINE
5
4B
330
1C
100
AcDbEntity
8
1
6
Continuous
62
3
100
AcDbLine
10
103.927990
20
110.312819
30
1.869394
11
106.724891
21
98.662889
31
6.105304
210
0.000000
220
0.000000
230
1.000000
0
LINE
5
4C
330
1C
100
AcDbEntity
8
1
6
Continuous
62
3
100
AcDbLine
10
94.361634
20
116.175090
30
1.869394
11
103.927990
21
110.312819
31
1.869394
210
0.000000
220
0.000000
230
1.000000
0
LINE
5
4D
330
1C
100
AcDbEntity
8
1
6
Continuous
62
3
100
AcDbLine
10
92.859081
20
113.559378
30
3.377065
11
94.361634
21
116.175090
31
1.869394
210
0.000000
220
0.000000
230
1.000000
0
LINE
5
4E
330
1C
100
AcDbEntity
8
1
6
Continuous
62
3
100
AcDbLine
10
94.093700
20
112.802802
30
3.377065
11
92.859081
21
113.559378
31
3.377065
210
0.000000
220
0.000000
230
1.000000
0
LINE
5
4F
330
1C
100
AcDbEntity
8
1
6
Continuous
62
3
100
AcDbLine
10
81.822028
20
109.856635
30
7.839041
11
94.093700
21
112.802802
31
3.377065
210
0.000000
220
0.000000
230
1.000000
0
LINE
5
50
330
1C
100
AcDbEntity
8
1
6
Continuous
62
3
100
AcDbLine
10
77.398710
20
128.281081
30
1.139918
11
81.822028
21
109.856635
31
7.839041
210
0.000000
220
0.000000
230
1.000000
0
LINE
5
51
330
1C
100
AcDbEntity
8
1
6
Continuous
62
3
100
AcDbLine
10
94.093700
20
112.802802
30
3.377065
11
95.696734
21
109.468137
31
4.379908
210
0.000000
220
0.000000
230
1.000000
0
LINE
5
52
330
1C
100
AcDbEntity
8
1
6
Continuous
62
3
100
AcDbLine
10
95.696734
20
109.468137
30
4.379908
11
90.539554
21
101.137698
31
9.278652
210
0.000000
220
0.000000
230
1.000000
0
LINE
5
53
330
1C
100
AcDbEntity
8
1
6
Continuous
62
3
100
AcDbLine
10
99.818619
20
106.942243
30
4.379908
11
95.696734
21
109.468137
31
4.379908
210
0.000000
220
0.000000
230
1.000000
0
LINE
5
54
330
1C
100
AcDbEntity
8
1
6
Continuous
62
3
100
AcDbLine
10
90.539554
20
101.137698
30
9.278652
11
87.854044
21
102.783380
31
9.278652
210
0.000000
220
0.000000
230
1.000000
0
LINE
5
55
330
1C
100
AcDbEntity
8
1
6
Continuous
62
3
100
AcDbLine
10
87.854044
20
102.783380
30
9.278652
11
89.660877
21
95.257377
31
12.015104
210
0.000000
220
0.000000
230
1.000000
0
LINE
5
56
330
1C
100
AcDbEntity
8
1
6
Continuous
62
3
100
AcDbLine
10
89.660877
20
95.257377
30
12.015104
11
96.892602
21
96.993561
31
9.385651
210
0.000000
220
0.000000
230
1.000000
0
LINE
5
57
330
1C
100
AcDbEntity
8
1
6
Continuous
62
3
100
AcDbLine
10
96.892602
20
96.993561
30
9.385651
11
94.623635
21
98.383986
31
9.385651
210
0.000000
220
0.000000
230
1.000000
0
LINE
5
58
330
1C
100
AcDbEntity
8
1
6
Continuous
62
3
100
AcDbLine
10
94.623635
20
98.383986
30
9.385651
11
99.818619
21
106.942243
31
4.379908
210
0.000000
220
0.000000
230
1.000000
0
LINE
5
59
330
1C
100
AcDbEntity
8
1
6
Continuous
62
3
100
AcDbLine
10
81.822028
20
109.856635
30
7.839041
11
91.087174
21
124.975978
31
7.839041
210
0.000000
220
0.000000
230
1.000000
0
LINE
5
5A
330
1C
100
AcDbEntity
8
1
6
Continuous
62
3
100
AcDbLine
10
76.393794
20
126.641207
30
1.139918
11
77.398710
21
128.281081
31
1.139918
210
0.000000
220
0.000000
230
1.000000
0
LINE
5
5B
330
1C
100
AcDbEntity
8
1
6
Continuous
62
3
100
AcDbLine
10
91.087174
20
124.975978
30
7.839041
11
85.358299
21
128.486637
31
4.479550
210
0.000000
220
0.000000
230
1.000000
0
LINE
5
5C
330
1C
100
AcDbEntity
8
1
6
Continuous
62
3
100
AcDbLine
10
85.358299
20
128.486637
30
4.479550
11
87.608563
21
132.158734
31
4.479550
210
0.000000
220
0.000000
230
1.000000
0
LINE
5
5D
330
1C
100
AcDbEntity
8
1
6
Continuous
62
3
100
AcDbLine
10
87.608563
20
132.158734
30
4.479550
11
81.606595
21
135.836745
31
0.959913
210
0.000000
220
0.000000
230
1.000000
0
LINE
5
5E
330
1C
100
AcDbEntity
8
1
6
Continuous
62
3
100
AcDbLine
10
81.606595
20
135.836745
30
0.959913
11
76.100562
21
126.851715
31
0.959913
210
0.000000
220
0.000000
230
1.000000
0
LINE
5
5F
330
1C
100
AcDbEntity
8
1
6
Continuous
62
3
100
AcDbLine
10
76.100562
20
126.851715
30
0.959913
11
76.393794
21
126.641207
31
1.139918
210
0.000000
220
0.000000
230
1.000000
0
LINE
5
60
330
1C
100
AcDbEntity
8
1
6
Continuous
62
3
100
AcDbLine
10
94.093700
20
112.802802
30
3.377065
11
98.696094
21
120.313226
31
3.377065
210
0.000000
220
0.000000
230
1.000000
0
LINE
5
61
330
1C
100
AcDbEntity
8
1
6
Continuous
62
3
100
AcDbLine
10
98.696094
20
120.313226
30
3.377065
11
91.087174
21
124.975978
31
7.839041
210
0.000000
220
0.000000
230
1.000000
0
LINE
5
62
330
1C
100
AcDbEntity
8
1
6
Continuous
62
3
100
AcDbLine
10
85.358299
20
128.486637
30
4.479550
11
86.605745
21
125.370490
31
3.133647
210
0.000000
220
0.000000
230
1.000000
0
LINE
5
63
330
1C
100
AcDbEntity
8
1
6
Continuous
62
3
100
AcDbLine
10
93.848130
20
128.335123
30
0.820581
11
87.608563
21
132.158734
31
4.479550
210
0.000000
220
0.000000
230
1.000000
0
LINE
5
64
330
1C
100
AcDbEntity
8
1
6
Continuous
62
3
100
AcDbLine
10
86.605745
20
125.370490
30
3.133647
11
90.550171
21
122.953343
31
0.820581
210
0.000000
220
0.000000
230
1.000000
0
LINE
5
65
330
1C
100
AcDbEntity
8
1
6
Continuous
62
3
100
AcDbLine
10
90.550171
20
122.953343
30
0.820581
11
93.848130
21
128.335123
31
0.820581
210
0.000000
220
0.000000
230
1.000000
0
LINE
5
66
330
1C
100
AcDbEntity
8
1
6
Continuous
62
3
100
AcDbLine
10
106.724891
20
98.662889
30
6.105304
11
116.428551
21
114.497823
31
6.105304
210
0.000000
220
0.000000
230
1.000000
0
LINE
5
67
330
1C
100
AcDbEntity
8
1
6
Continuous
62
3
100
AcDbLine
10
103.063592
20
108.902250
30
1.869394
11
103.927990
21
110.312819
31
1.869394
210
0.000000
220
0.000000
230
1.000000
0
LINE
5
68
330
1C
100
AcDbEntity
8
1
6
Continuous
62
3
100
AcDbLine
10
116.428551
20
114.497823
30
6.105304
11
106.803799
21
120.395879
31
0.461217
210
0.000000
220
0.000000
230
1.000000
0
LINE
5
69
330
1C
100
AcDbEntity
8
1
6
Continuous
62
3
100
AcDbLine
10
106.803799
20
120.395879
30
0.461217
11
100.689477
21
110.418212
31
0.461217
210
0.000000
220
0.000000
230
1.000000
0
LINE
5
6A
330
1C
100
AcDbEntity
8
1
6
Continuous
62
3
100
AcDbLine
10
100.689477
20
110.418212
30
0.461217
11
103.063592
21
108.902250
31
1.869394
210
0.000000
220
0.000000
230
1.000000
0
LINE
5
6B
330
1C
100
AcDbEntity
8
1
6
Continuous
62
3
100
AcDbLine
10
123.516172
20
102.694119
30
0.000000
11
126.839806
21
108.117798
31
0.000000
210
0.000000
220
0.000000
230
1.000000
0
LINE
5
6C
330
1C
100
AcDbEntity
8
1
6
Continuous
62
3
100
AcDbLine
10
126.839806
20
108.117798
30
0.000000
11
116.428551
21
114.497823
31
6.105304
210
0.000000
220
0.000000
230
1.000000
0
LINE
5
6D
330
1C
100
AcDbEntity
8
1
6
Continuous
62
3
100
AcDbLine
10
117.447800
20
93.729271
30
5.407253
11
114.121646
21
92.275517
31
3.918533
210
0.000000
220
0.000000
230
1.000000
0
LINE
5
6E
330
1C
100
AcDbEntity
8
1
6
Continuous
62
3
100
AcDbLine
10
116.025338
20
81.917405
30
0.000000
11
121.675901
21
91.138287
31
5.407253
210
0.000000
220
0.000000
230
1.000000
0
LINE
5
6F
330
1C
100
AcDbEntity
8
1
6
Continuous
62
3
100
AcDbLine
10
114.121646
20
92.275517
30
3.918533
11
110.026790
21
85.593320
31
0.000000
210
0.000000
220
0.000000
230
1.000000
0
LINE
5
70
330
1C
100
AcDbEntity
8
1
6
Continuous
62
3
100
AcDbLine
10
110.026790
20
85.593320
30
0.000000
11
116.025338
21
81.917405
31
0.000000
210
0.000000
220
0.000000
230
1.000000
0
LINE
5
71
330
1C
100
AcDbEntity
8
1
6
Continuous
62
3
100
AcDbLine
10
95.065496
20
114.551400
30
9.278652
11
87.854044
21
102.783380
31
9.278652
210
0.000000
220
0.000000
230
1.000000
0
LINE
5
72
330
1C
100
AcDbEntity
8
1
6
Continuous
62
3
100
AcDbLine
10
89.660877
20
95.257377
30
12.015104
11
99.757484
21
111.733542
31
12.015104
210
0.000000
220
0.000000
230
1.000000
0
LINE
5
73
330
1C
100
AcDbEntity
8
1
6
Continuous
62
3
100
AcDbLine
10
99.757484
20
111.733542
30
12.015104
11
95.065496
21
114.551400
31
9.278652
210
0.000000
220
0.000000
230
1.000000
0
LINE
5
74
330
1C
100
AcDbEntity
8
1
6
Continuous
62
3
100
AcDbLine
10
96.892602
20
96.993561
30
9.385651
11
104.201224
21
108.920147
31
9.385651
210
0.000000
220
0.000000
230
1.000000
0
LINE
5
75
330
1C
100
AcDbEntity
8
1
6
Continuous
62
3
100
AcDbLine
10
104.201224
20
108.920147
30
9.385651
11
99.757484
21
111.733542
31
12.015104
210
0.000000
220
0.000000
230
1.000000
0
LINE
5
76
330
1C
100
AcDbEntity
8
1
6
Continuous
62
3
100
AcDbLine
10
77.372647
20
55.899378
30
3.567397
11
77.116732
21
58.291659
31
4.472766
210
0.000000
220
0.000000
230
1.000000
0
LINE
5
77
330
1C
100
AcDbEntity
8
1
6
Continuous
62
3
100
AcDbLine
10
75.903022
20
47.741437
30
-0.101343
11
77.372647
21
55.899378
31
3.567397
210
0.000000
220
0.000000
230
1.000000
0
LINE
5
78
330
1C
100
AcDbEntity
8
1
6
Continuous
62
3
100
AcDbLine
10
77.116732
20
58.291659
30
4.472766
11
74.784188
21
57.418790
31
3.540344
210
0.000000
220
0.000000
230
1.000000
0
LINE
5
79
330
1C
100
AcDbEntity
8
1
6
Continuous
62
3
100
AcDbLine
10
74.784188
20
57.418790
30
3.540344
11
67.791595
21
52.712126
31
-0.101343
210
0.000000
220
0.000000
230
1.000000
0
LINE
5
7A
330
1C
100
AcDbEntity
8
1
6
Continuous
62
3
100
AcDbLine
10
74.784188
20
57.418790
30
3.540344
11
67.458675
21
56.602935
31
-0.000000
210
0.000000
220
0.000000
230
1.000000
0
LINE
5
7B
330
1C
100
AcDbEntity
8
1
6
Continuous
62
3
100
AcDbLine
10
77.372647
20
55.899378
30
3.567397
11
79.912019
21
48.971516
31
-0.000000
210
0.000000
220
0.000000
230
1.000000
0
LINE
5
7C
330
1C
100
AcDbEntity
8
1
6
Continuous
62
3
100
AcDbLine
10
67.791595
20
52.712126
30
-0.101343
11
67.458675
21
56.602935
31
-0.000000
210
0.000000
220
0.000000
230
1.000000
0
LINE
5
7D
330
1C
100
AcDbEntity
8
1
6
Continuous
62
3
100
AcDbLine
10
75.903022
20
47.741437
30
-0.101343
11
79.912019
21
48.971516
31
-0.000000
210
0.000000
220
0.000000
230
1.000000
0
LINE
5
7E
330
1C
100
AcDbEntity
8
2
6
Continuous
62
6
100
AcDbLine
10
66.562960
20
101.270299
30
12.363420
11
64.857680
21
102.315296
31
12.363420
210
0.000000
220
0.000000
230
1.000000
0
LINE
5
80
330
1C
100
AcDbEntity
8
2
6
Continuous
62
6
100
AcDbLine
10
67.491363
20
102.785314
30
13.281460
11
66.562960
21
101.270299
31
12.363420
210
0.000000
220
0.000000
230
1.000000
0
LINE
5
81
330
1C
100
AcDbEntity
8
2
6
Continuous
62
6
100
AcDbLine
10
64.857680
20
102.315296
30
12.363420
11
65.786082
21
103.830312
31
13.281460
210
0.000000
220
0.000000
230
1.000000
0
LINE
5
82
330
1C
100
AcDbEntity
8
2
6
Continuous
62
6
100
AcDbLine
10
65.786082
20
103.830312
30
13.281460
11
67.491363
21
102.785314
31
13.281460
210
0.000000
220
0.000000
230
1.000000
0
LINE
5
83
330
1C
100
AcDbEntity
8
2
6
Continuous
62
6
100
AcDbLine
10
75.273096
20
96.030552
30
12.406517
11
73.567815
21
97.075549
31
12.406517
210
0.000000
220
0.000000
230
1.000000
0
LINE
5
84
330
1C
100
AcDbEntity
8
2
6
Continuous
62
6
100
AcDbLine
10
76.201498
20
97.545567
30
13.324557
11
75.273096
21
96.030552
31
12.406517
210
0.000000
220
0.000000
230
1.000000
0
LINE
5
85
330
1C
100
AcDbEntity
8
2
6
Continuous
62
6
100
AcDbLine
10
73.567815
20
97.075549
30
12.406517
11
74.496218
21
98.590564
31
13.324557
210
0.000000
220
0.000000
230
1.000000
0
LINE
5
86
330
1C
100
AcDbEntity
8
2
6
Continuous
62
6
100
AcDbLine
10
74.496218
20
98.590564
30
13.324557
11
76.201498
21
97.545567
31
13.324557
210
0.000000
220
0.000000
230
1.000000
0
LINE
5
87
330
1C
100
AcDbEntity
8
2
6
Continuous
62
6
100
AcDbLine
10
79.283854
20
69.626313
30
8.929495
11
77.578573
21
70.671310
31
8.929495
210
0.000000
220
0.000000
230
1.000000
0
LINE
5
88
330
1C
100
AcDbEntity
8
2
6
Continuous
62
6
100
AcDbLine
10
80.212256
20
71.141328
30
9.847535
11
79.283854
21
69.626313
31
8.929495
210
0.000000
220
0.000000
230
1.000000
0
LINE
5
89
330
1C
100
AcDbEntity
8
2
6
Continuous
62
6
100
AcDbLine
10
77.578573
20
70.671310
30
8.929495
11
78.506976
21
72.186325
31
9.847535
210
0.000000
220
0.000000
230
1.000000
0
LINE
5
8A
330
1C
100
AcDbEntity
8
2
6
Continuous
62
6
100
AcDbLine
10
78.506976
20
72.186325
30
9.847535
11
80.212256
21
71.141328
31
9.847535
210
0.000000
220
0.000000
230
1.000000
0
LINE
5
8B
330
1C
100
AcDbEntity
8
2
6
Continuous
62
6
100
AcDbLine
10
80.235241
20
81.467575
30
11.621131
11
78.529960
21
82.512572
31
11.621131
210
0.000000
220
0.000000
230
1.000000
0
LINE
5
8C
330
1C
100
AcDbEntity
8
2
6
Continuous
62
6
100
AcDbLine
10
81.163643
20
82.982590
30
12.539171
11
80.235241
21
81.467575
31
11.621131
210
0.000000
220
0.000000
230
1.000000
0
LINE
5
8D
330
1C
100
AcDbEntity
8
2
6
Continuous
62
6
100
AcDbLine
10
78.529960
20
82.512572
30
11.621131
11
79.458363
21
84.027587
31
12.539171
210
0.000000
220
0.000000
230
1.000000
0
LINE
5
8E
330
1C
100
AcDbEntity
8
2
6
Continuous
62
6
100
AcDbLine
10
79.458363
20
84.027587
30
12.539171
11
81.163643
21
82.982590
31
12.539171
210
0.000000
220
0.000000
230
1.000000
0
LINE
5
8F
330
1C
100
AcDbEntity
8
2
6
Continuous
62
6
100
AcDbLine
10
96.605009
20
82.217761
30
12.080270
11
94.899729
21
83.262759
31
12.080270
210
0.000000
220
0.000000
230
1.000000
0
LINE
5
90
330
1C
100
AcDbEntity
8
2
6
Continuous
62
6
100
AcDbLine
10
97.533412
20
83.732777
30
12.998310
11
96.605009
21
82.217761
31
12.080270
210
0.000000
220
0.000000
230
1.000000
0
LINE
5
91
330
1C
100
AcDbEntity
8
2
6
Continuous
62
6
100
AcDbLine
10
94.899729
20
83.262759
30
12.080270
11
95.828132
21
84.777774
31
12.998310
210
0.000000
220
0.000000
230
1.000000
0
LINE
5
92
330
1C
100
AcDbEntity
8
2
6
Continuous
62
6
100
AcDbLine
10
95.828132
20
84.777774
30
12.998310
11
97.533412
21
83.732777
31
12.998310
210
0.000000
220
0.000000
230
1.000000
0
LINE
5
93
330
1C
100
AcDbEntity
8
2
6
Continuous
62
6
100
AcDbLine
10
105.141669
20
77.368800
30
12.248689
11
103.436389
21
78.413797
31
12.248689
210
0.000000
220
0.000000
230
1.000000
0
LINE
5
94
330
1C
100
AcDbEntity
8
2
6
Continuous
62
6
100
AcDbLine
10
106.070072
20
78.883815
30
13.166730
11
105.141669
21
77.368800
31
12.248689
210
0.000000
220
0.000000
230
1.000000
0
LINE
5
95
330
1C
100
AcDbEntity
8
2
6
Continuous
62
6
100
AcDbLine
10
103.436389
20
78.413797
30
12.248689
11
104.364792
21
79.928812
31
13.166730
210
0.000000
220
0.000000
230
1.000000
0
LINE
5
96
330
1C
100
AcDbEntity
8
2
6
Continuous
62
6
100
AcDbLine
10
104.364792
20
79.928812
30
13.166730
11
106.070072
21
78.883815
31
13.166730
210
0.000000
220
0.000000
230
1.000000
0
LINE
5
97
330
1C
100
AcDbEntity
8
2
6
Continuous
62
6
100
AcDbLine
10
86.952598
20
82.642010
30
10.425500
11
85.123853
21
79.657770
31
10.425500
210
0.000000
220
0.000000
230
1.000000
0
LINE
5
98
330
1C
100
AcDbEntity
8
2
6
Continuous
62
6
100
AcDbLine
10
84.301321
20
84.266715
30
12.032070
11
86.952598
21
82.642010
31
10.425500
210
0.000000
220
0.000000
230
1.000000
0
LINE
5
99
330
1C
100
AcDbEntity
8
2
6
Continuous
62
6
100
AcDbLine
10
85.123853
20
79.657770
30
10.425500
11
82.472576
21
81.282474
31
12.032070
210
0.000000
220
0.000000
230
1.000000
0
LINE
5
9A
330
1C
100
AcDbEntity
8
2
6
Continuous
62
6
100
AcDbLine
10
82.472576
20
81.282474
30
12.032070
11
84.301321
21
84.266715
31
12.032070
210
0.000000
220
0.000000
230
1.000000
0
LINE
5
9B
330
1C
100
AcDbEntity
8
2
6
Continuous
62
6
100
AcDbLine
10
79.540575
20
92.147168
30
11.847806
11
78.261615
21
92.930916
31
11.847806
210
0.000000
220
0.000000
230
1.000000
0
LINE
5
9C
330
1C
100
AcDbEntity
8
2
6
Continuous
62
6
100
AcDbLine
10
80.236877
20
93.283430
30
12.536336
11
79.540575
21
92.147168
31
11.847806
210
0.000000
220
0.000000
230
1.000000
0
LINE
5
9D
330
1C
100
AcDbEntity
8
2
6
Continuous
62
6
100
AcDbLine
10
78.261615
20
92.930916
30
11.847806
11
78.957917
21
94.067178
31
12.536336
210
0.000000
220
0.000000
230
1.000000
0
LINE
5
9E
330
1C
100
AcDbEntity
8
2
6
Continuous
62
6
100
AcDbLine
10
78.957917
20
94.067178
30
12.536336
11
80.236877
21
93.283430
31
12.536336
210
0.000000
220
0.000000
230
1.000000
0
LINE
5
9F
330
1C
100
AcDbEntity
8
2
6
Continuous
62
6
100
AcDbLine
10
82.227095
20
93.173535
30
13.025198
11
80.948134
21
93.957283
31
13.025198
210
0.000000
220
0.000000
230
1.000000
0
LINE
5
A0
330
1C
100
AcDbEntity
8
2
6
Continuous
62
6
100
AcDbLine
10
82.923396
20
94.309796
30
13.713728
11
82.227095
21
93.173535
31
13.025198
210
0.000000
220
0.000000
230
1.000000
0
LINE
5
A1
330
1C
100
AcDbEntity
8
2
6
Continuous
62
6
100
AcDbLine
10
80.948134
20
93.957283
30
13.025198
11
81.644436
21
95.093544
31
13.713728
210
0.000000
220
0.000000
230
1.000000
0
LINE
5
A2
330
1C
100
AcDbEntity
8
2
6
Continuous
62
6
100
AcDbLine
10
81.644436
20
95.093544
30
13.713728
11
82.923396
21
94.309796
31
13.713728
210
0.000000
220
0.000000
230
1.000000
0
LINE
5
A3
330
1C
100
AcDbEntity
8
2
6
Continuous
62
6
100
AcDbLine
10
92.271800
20
84.313010
30
11.833509
11
90.992840
21
85.096758
31
11.833509
210
0.000000
220
0.000000
230
1.000000
0
LINE
5
A4
330
1C
100
AcDbEntity
8
2
6
Continuous
62
6
100
AcDbLine
10
92.968102
20
85.449272
30
12.522039
11
92.271800
21
84.313010
31
11.833509
210
0.000000
220
0.000000
230
1.000000
0
LINE
5
A5
330
1C
100
AcDbEntity
8
2
6
Continuous
62
6
100
AcDbLine
10
90.992840
20
85.096758
30
11.833509
11
91.689142
21
86.233019
31
12.522039
210
0.000000
220
0.000000
230
1.000000
0
LINE
5
A6
330
1C
100
AcDbEntity
8
2
6
Continuous
62
6
100
AcDbLine
10
91.689142
20
86.233019
30
12.522039
11
92.968102
21
85.449272
31
12.522039
210
0.000000
220
0.000000
230
1.000000
0
LINE
5
A7
330
1C
100
AcDbEntity
8
2
6
Continuous
62
6
100
AcDbLine
10
93.835619
20
69.261012
30
5.624805
11
92.556659
21
70.044759
31
5.624805
210
0.000000
220
0.000000
230
1.000000
0
LINE
5
A8
330
1C
100
AcDbEntity
8
2
6
Continuous
62
6
100
AcDbLine
10
94.531921
20
70.397273
30
6.313335
11
93.835619
21
69.261012
31
5.624805
210
0.000000
220
0.000000
230
1.000000
0
LINE
5
A9
330
1C
100
AcDbEntity
8
2
6
Continuous
62
6
100
AcDbLine
10
92.556659
20
70.044759
30
5.624805
11
93.252961
21
71.181021
31
6.313335
210
0.000000
220
0.000000
230
1.000000
0
LINE
5
AA
330
1C
100
AcDbEntity
8
2
6
Continuous
62
6
100
AcDbLine
10
93.252961
20
71.181021
30
6.313335
11
94.531921
21
70.397273
31
6.313335
210
0.000000
220
0.000000
230
1.000000
0
LINE
5
AB
330
1C
100
AcDbEntity
8
2
6
Continuous
62
6
100
AcDbLine
10
90.676339
20
68.176240
30
4.879933
11
89.892591
21
66.897280
31
4.879933
210
0.000000
220
0.000000
230
1.000000
0
LINE
5
AC
330
1C
100
AcDbEntity
8
2
6
Continuous
62
6
100
AcDbLine
10
89.540078
20
68.872542
30
5.568463
11
90.676339
21
68.176240
31
4.879933
210
0.000000
220
0.000000
230
1.000000
0
LINE
5
AD
330
1C
100
AcDbEntity
8
2
6
Continuous
62
6
100
AcDbLine
10
89.892591
20
66.897280
30
4.879933
11
88.756330
21
67.593582
31
5.568463
210
0.000000
220
0.000000
230
1.000000
0
LINE
5
AE
330
1C
100
AcDbEntity
8
2
6
Continuous
62
6
100
AcDbLine
10
88.756330
20
67.593582
30
5.568463
11
89.540078
21
68.872542
31
5.568463
210
0.000000
220
0.000000
230
1.000000
0
LINE
5
AF
330
1C
100
AcDbEntity
8
2
6
Continuous
62
6
100
AcDbLine
10
78.329233
20
64.162985
30
6.265024
11
77.476593
21
64.685483
31
6.265024
210
0.000000
220
0.000000
230
1.000000
0
LINE
5
B0
330
1C
100
AcDbEntity
8
2
6
Continuous
62
6
100
AcDbLine
10
78.793434
20
64.920492
30
6.724044
11
78.329233
21
64.162985
31
6.265024
210
0.000000
220
0.000000
230
1.000000
0
LINE
5
B1
330
1C
100
AcDbEntity
8
2
6
Continuous
62
6
100
AcDbLine
10
77.476593
20
64.685483
30
6.265024
11
77.940794
21
65.442991
31
6.724044
210
0.000000
220
0.000000
230
1.000000
0
LINE
5
B2
330
1C
100
AcDbEntity
8
2
6
Continuous
62
6
100
AcDbLine
10
77.940794
20
65.442991
30
6.724044
11
78.793434
21
64.920492
31
6.724044
210
0.000000
220
0.000000
230
1.000000
0
LINE
5
B3
330
1C
100
AcDbEntity
8
2
6
Continuous
62
6
100
AcDbLine
10
55.488713
20
89.744879
30
4.296541
11
54.636073
21
90.267378
31
4.296541
210
0.000000
220
0.000000
230
1.000000
0
LINE
5
B4
330
1C
100
AcDbEntity
8
2
6
Continuous
62
6
100
AcDbLine
10
55.952914
20
90.502387
30
4.755561
11
55.488713
21
89.744879
31
4.296541
210
0.000000
220
0.000000
230
1.000000
0
LINE
5
B5
330
1C
100
AcDbEntity
8
2
6
Continuous
62
6
100
AcDbLine
10
54.636073
20
90.267378
30
4.296541
11
55.100274
21
91.024885
31
4.755561
210
0.000000
220
0.000000
230
1.000000
0
LINE
5
B6
330
1C
100
AcDbEntity
8
2
6
Continuous
62
6
100
AcDbLine
10
55.100274
20
91.024885
30
4.755561
11
55.952914
21
90.502387
31
4.755561
210
0.000000
220
0.000000
230
1.000000
0
LINE
5
B7
330
1C
100
AcDbEntity
8
2
6
Continuous
62
6
100
AcDbLine
10
60.496602
20
97.874776
30
9.229928
11
59.643962
21
98.397275
31
9.229928
210
0.000000
220
0.000000
230
1.000000
0
LINE
5
B8
330
1C
100
AcDbEntity
8
2
6
Continuous
62
6
100
AcDbLine
10
60.960804
20
98.632284
30
9.688948
11
60.496602
21
97.874776
31
9.229928
210
0.000000
220
0.000000
230
1.000000
0
LINE
5
B9
330
1C
100
AcDbEntity
8
2
6
Continuous
62
6
100
AcDbLine
10
59.643962
20
98.397275
30
9.229928
11
60.108164
21
99.154783
31
9.688948
210
0.000000
220
0.000000
230
1.000000
0
LINE
5
BA
330
1C
100
AcDbEntity
8
2
6
Continuous
62
6
100
AcDbLine
10
60.108164
20
99.154783
30
9.688948
11
60.960804
21
98.632284
31
9.688948
210
0.000000
220
0.000000
230
1.000000
0
LINE
5
BB
330
1C
100
AcDbEntity
8
2
6
Continuous
62
6
100
AcDbLine
10
89.079155
20
49.382260
30
0.509964
11
88.556656
21
48.529619
31
0.509964
210
0.000000
220
0.000000
230
1.000000
0
LINE
5
BC
330
1C
100
AcDbEntity
8
2
6
Continuous
62
6
100
AcDbLine
10
88.321647
20
49.846461
30
0.968984
11
89.079155
21
49.382260
31
0.509964
210
0.000000
220
0.000000
230
1.000000
0
LINE
5
BD
330
1C
100
AcDbEntity
8
2
6
Continuous
62
6
100
AcDbLine
10
88.556656
20
48.529619
30
0.509964
11
87.799149
21
48.993821
31
0.968984
210
0.000000
220
0.000000
230
1.000000
0
LINE
5
BE
330
1C
100
AcDbEntity
8
2
6
Continuous
62
6
100
AcDbLine
10
87.799149
20
48.993821
30
0.968984
11
88.321647
21
49.846461
31
0.968984
210
0.000000
220
0.000000
230
1.000000
0
LINE
5
BF
330
1C
100
AcDbEntity
8
2
6
Continuous
62
6
100
AcDbLine
10
90.401816
20
51.391710
30
0.469758
11
89.879318
21
50.539070
31
0.469758
210
0.000000
220
0.000000
230
1.000000
0
LINE
5
C0
330
1C
100
AcDbEntity
8
2
6
Continuous
62
6
100
AcDbLine
10
89.644309
20
51.855911
30
0.928778
11
90.401816
21
51.391710
31
0.469758
210
0.000000
220
0.000000
230
1.000000
0
LINE
5
C1
330
1C
100
AcDbEntity
8
2
6
Continuous
62
6
100
AcDbLine
10
89.879318
20
50.539070
30
0.469758
11
89.121810
21
51.003271
31
0.928778
210
0.000000
220
0.000000
230
1.000000
0
LINE
5
C2
330
1C
100
AcDbEntity
8
2
6
Continuous
62
6
100
AcDbLine
10
89.121810
20
51.003271
30
0.928778
11
89.644309
21
51.855911
31
0.928778
210
0.000000
220
0.000000
230
1.000000
0
LINE
5
C3
330
1C
100
AcDbEntity
8
2
6
Continuous
62
6
100
AcDbLine
10
101.449884
20
71.455891
30
8.647246
11
100.597244
21
71.978390
31
8.647246
210
0.000000
220
0.000000
230
1.000000
0
LINE
5
C4
330
1C
100
AcDbEntity
8
2
6
Continuous
62
6
100
AcDbLine
10
101.914086
20
72.213399
30
9.106266
11
101.449884
21
71.455891
31
8.647246
210
0.000000
220
0.000000
230
1.000000
0
LINE
5
C5
330
1C
100
AcDbEntity
8
2
6
Continuous
62
6
100
AcDbLine
10
100.597244
20
71.978390
30
8.647246
11
101.061445
21
72.735897
31
9.106266
210
0.000000
220
0.000000
230
1.000000
0
LINE
5
C6
330
1C
100
AcDbEntity
8
2
6
Continuous
62
6
100
AcDbLine
10
101.061445
20
72.735897
30
9.106266
11
101.914086
21
72.213399
31
9.106266
210
0.000000
220
0.000000
230
1.000000
0
LINE
5
C7
330
1C
100
AcDbEntity
8
2
6
Continuous
62
6
100
AcDbLine
10
90.535152
20
52.823712
30
0.797599
11
90.012653
21
51.971072
31
0.797599
210
0.000000
220
0.000000
230
1.000000
0
LINE
5
C8
330
1C
100
AcDbEntity
8
2
6
Continuous
62
6
100
AcDbLine
10
89.777644
20
53.287913
30
1.256619
11
90.535152
21
52.823712
31
0.797599
210
0.000000
220
0.000000
230
1.000000
0
LINE
5
C9
330
1C
100
AcDbEntity
8
2
6
Continuous
62
6
100
AcDbLine
10
90.012653
20
51.971072
30
0.797599
11
89.255146
21
52.435273
31
1.256619
210
0.000000
220
0.000000
230
1.000000
0
LINE
5
CA
330
1C
100
AcDbEntity
8
2
6
Continuous
62
6
100
AcDbLine
10
89.255146
20
52.435273
30
1.256619
11
89.777644
21
53.287913
31
1.256619
210
0.000000
220
0.000000
230
1.000000
0
INSERT
5
CB
330
1C
100
AcDbEntity
8
0
6
Continuous
100
AcDbBlockReference
2

0
INSERT
5
CC
330
1C
100
AcDbEntity
8
0
6
Continuous
100
AcDbBlockReference
2

0
TEXT
5
CE
330
1C
100
AcDbEntity
8
defpoints
6
Continuous
100
AcDbText
10
64.080897
20
78.074777
30
6.832270
40
1.000000
1
P
100
AcDbText
0
POLYLINE
5
D0
330
1C
100
AcDbEntity
8
Eagleview - 2D Roof Facets
6
Continuous
420
0
100
AcDb3dPolyline
10
0.0
20
0.0
30
0.000000
70
9
0
VERTEX
5
D2
330
D0
100
AcDbEntity
8
Eagleview - 2D Roof Facets
6
Continuous
100
AcDbVertex
100
AcDb3dPolylineVertex
10
0.000000
20
-15.406159
30
0.000000
70
32
0
VERTEX
5
D3
330
D0
100
AcDbEntity
8
Eagleview - 2D Roof Facets
6
Continuous
100
AcDbVertex
100
AcDb3dPolylineVertex
10
11.494345
20
-15.406159
30
0.000000
70
32
0
SEQEND
5
D1
330
D0
100
AcDbEntity
1001
EVT
1002
{
1000
LineDesc
1000
P1-EAVE L1
1002
}
0
POLYLINE
5
D5
330
1C
100
AcDbEntity
8
Eagleview - 2D Roof Facets
6
Continuous
420
255
100
AcDb3dPolyline
10
0.0
20
0.0
30
0.000000
70
9
0
VERTEX
5
D7
330
D5
100
AcDbEntity
8
Eagleview - 2D Roof Facets
6
Continuous
100
AcDbVertex
100
AcDb3dPolylineVertex
10
11.494345
20
-15.406159
30
0.000000
70
32
0
VERTEX
5
D8
330
D5
100
AcDbEntity
8
Eagleview - 2D Roof Facets
6
Continuous
100
AcDbVertex
100
AcDb3dPolylineVertex
10
32.194670
20
7.893840
30
-0.000001
70
32
0
SEQEND
5
D6
330
D5
100
AcDbEntity
1001
EVT
1002
{
1000
LineDesc
1000
P2-VALLEY L3
1002
}
0
POLYLINE
5
D9
330
1C
100
AcDbEntity
8
Eagleview - 2D Roof Facets
6
Continuous
420
16711680
100
AcDb3dPolyline
10
0.0
20
0.0
30
0.000000
70
9
0
VERTEX
5
DB
330
D9
100
AcDbEntity
8
Eagleview - 2D Roof Facets
6
Continuous
100
AcDbVertex
100
AcDb3dPolylineVertex
10
32.194670
20
7.893840
30
-0.000001
70
32
0
VERTEX
5
DC
330
D9
100
AcDbEntity
8
Eagleview - 2D Roof Facets
6
Continuous
100
AcDbVertex
100
AcDb3dPolylineVertex
10
26.447498
20
14.362778
30
-0.000000
70
32
0
SEQEND
5
DA
330
D9
100
AcDbEntity
1001
EVT
1002
{
1000
LineDesc
1000
P3-HIP L4
1002
}
0
POLYLINE
5
DD
330
1C
100
AcDbEntity
8
Eagleview - 2D Roof Facets
6
Continuous
420
16711680
100
AcDb3dPolyline
10
0.0
20
0.0
30
0.000000
70
9
0
VERTEX
5
DF
330
DD
100
AcDbEntity
8
Eagleview - 2D Roof Facets
6
Continuous
100
AcDbVertex
100
AcDb3dPolylineVertex
10
26.447498
20
14.362778
30
-0.000000
70
32
0
VERTEX
5
E0
330
DD
100
AcDbEntity
8
Eagleview - 2D Roof Facets
6
Continuous
100
AcDbVertex
100
AcDb3dPolylineVertex
10
0.000000
20
-15.406159
30
0.000000
70
32
0
SEQEND
5
DE
330
DD
100
AcDbEntity
1001
EVT
1002
{
1000
LineDesc
1000
P4-HIP L2
1002
}
0
TEXT
5
E1
330
1C
100
AcDbEntity
8
Eagleview - 2D Roof Facets
6
Continuous
100
AcDbText
10
0.000000
20
-17.906159
30
0.000000
40
1.000000
1
Facet: P
100
AcDbText
0
TEXT
5
E2
330
1C
100
AcDbEntity
8
Eagleview - 2D Roof Facets
6
Continuous
100
AcDbText
10
0.000000
20
-19.406159
30
0.000000
40
1.000000
1
Pitch: 27
100
AcDbText
0
TEXT
5
E3
330
1C
100
AcDbEntity
8
Eagleview - 2D Roof Facets
6
Continuous
100
AcDbText
10
0.000000
20
-20.906159
30
0.000000
40
1.000000
1
Orientation: 211
100
AcDbText
0
TEXT
5
E4
330
1C
100
AcDbEntity
8
defpoints
6
Continuous
100
AcDbText
10
65.301663
20
84.617898
30
6.832270
40
1.000000
1
O
100
AcDbText
0
POLYLINE
5
E5
330
1C
100
AcDbEntity
8
Eagleview - 2D Roof Facets
6
Continuous
420
16711680
100
AcDb3dPolyline
10
0.0
20
0.0
30
0.000000
70
9
0
VERTEX
5
E7
330
E5
100
AcDbEntity
8
Eagleview - 2D Roof Facets
6
Continuous
100
AcDbVertex
100
AcDb3dPolylineVertex
10
8.304163
20
-29.906159
30
-0.000002
70
32
0
VERTEX
5
E8
330
E5
100
AcDbEntity
8
Eagleview - 2D Roof Facets
6
Continuous
100
AcDbVertex
100
AcDb3dPolylineVertex
10
34.751662
20
-59.675096
30
0.000000
70
32
0
SEQEND
5
E6
330
E5
100
AcDbEntity
1001
EVT
1002
{
1000
LineDesc
1000
P5-HIP L2
1002
}
0
POLYLINE
5
E9
330
1C
100
AcDbEntity
8
Eagleview - 2D Roof Facets
6
Continuous
420
0
100
AcDb3dPolyline
10
0.0
20
0.0
30
0.000000
70
9
0
VERTEX
5
EB
330
E9
100
AcDbEntity
8
Eagleview - 2D Roof Facets
6
Continuous
100
AcDbVertex
100
AcDb3dPolylineVertex
10
34.751662
20
-59.675096
30
0.000000
70
32
0
VERTEX
5
EC
330
E9
100
AcDbEntity
8
Eagleview - 2D Roof Facets
6
Continuous
100
AcDbVertex
100
AcDb3dPolylineVertex
10
21.543262
20
-59.675097
30
0.000001
70
32
0
SEQEND
5
EA
330
E9
100
AcDbEntity
1001
EVT
1002
{
1000
LineDesc
1000
P6-EAVE L5
1002
}
0
POLYLINE
5
ED
330
1C
100
AcDbEntity
8
Eagleview - 2D Roof Facets
6
Continuous
420
13994280
100
AcDb3dPolyline
10
0.0
20
0.0
30
0.000000
70
9
0
VERTEX
5
EF
330
ED
100
AcDbEntity
8
Eagleview - 2D Roof Facets
6
Continuous
100
AcDbVertex
100
AcDb3dPolylineVertex
10
21.543262
20
-59.675097
30
0.000001
70
32
0
VERTEX
5
F0
330
ED
100
AcDbEntity
8
Eagleview - 2D Roof Facets
6
Continuous
100
AcDbVertex
100
AcDb3dPolylineVertex
10
21.543262
20
-58.135694
30
0.000001
70
32
0
SEQEND
5
EE
330
ED
100
AcDbEntity
1001
EVT
1002
{
1000
LineDesc
1000
P7-STEPFLASH L7
1002
}
0
POLYLINE
5
F1
330
1C
100
AcDbEntity
8
Eagleview - 2D Roof Facets
6
Continuous
420
13994280
100
AcDb3dPolyline
10
0.0
20
0.0
30
0.000000
70
9
0
VERTEX
5
F3
330
F1
100
AcDbEntity
8
Eagleview - 2D Roof Facets
6
Continuous
100
AcDbVertex
100
AcDb3dPolylineVertex
10
21.543262
20
-58.135694
30
0.000001
70
32
0
VERTEX
5
F4
330
F1
100
AcDbEntity
8
Eagleview - 2D Roof Facets
6
Continuous
100
AcDbVertex
100
AcDb3dPolylineVertex
10
23.555616
20
-58.135694
30
0.000001
70
32
0
SEQEND
5
F2
330
F1
100
AcDbEntity
1001
EVT
1002
{
1000
LineDesc
1000
P8-FLASHING L8
1002
}
0
POLYLINE
5
F5
330
1C
100
AcDbEntity
8
Eagleview - 2D Roof Facets
6
Continuous
420
13994280
100
AcDb3dPolyline
10
0.0
20
0.0
30
0.000000
70
9
0
VERTEX
5
F7
330
F5
100
AcDbEntity
8
Eagleview - 2D Roof Facets
6
Continuous
100
AcDbVertex
100
AcDb3dPolylineVertex
10
23.555616
20
-58.135694
30
0.000001
70
32
0
VERTEX
5
F8
330
F5
100
AcDbEntity
8
Eagleview - 2D Roof Facets
6
Continuous
100
AcDbVertex
100
AcDb3dPolylineVertex
10
25.880217
20
-59.036573
30
0.000000
70
32
0
SEQEND
5
F6
330
F5
100
AcDbEntity
1001
EVT
1002
{
1000
LineDesc
1000
P9-STEPFLASH L9
1002
}
0
POLYLINE
5
F9
330
1C
100
AcDbEntity
8
Eagleview - 2D Roof Facets
6
Continuous
420
255
100
AcDb3dPolyline
10
0.0
20
0.0
30
0.000000
70
9
0
VERTEX
5
FB
330
F9
100
AcDbEntity
8
Eagleview - 2D Roof Facets
6
Continuous
100
AcDbVertex
100
AcDb3dPolylineVertex
10
25.880217
20
-59.036573
30
0.000000
70
32
0
VERTEX
5
FC
330
F9
100
AcDbEntity
8
Eagleview - 2D Roof Facets
6
Continuous
100
AcDbVertex
100
AcDb3dPolylineVertex
10
0.000000
20
-29.906160
30
-0.000001
70
32
0
SEQEND
5
FA
330
F9
100
AcDbEntity
1001
EVT
1002
{
1000
LineDesc
1000
P10-VALLEY L10
1002
}
0
POLYLINE
5
FD
330
1C
100
AcDbEntity
8
Eagleview - 2D Roof Facets
6
Continuous
420
16711680
100
AcDb3dPolyline
10
0.0
20
0.0
30
0.000000
70
9
0
VERTEX
5
FF
330
FD
100
AcDbEntity
8
Eagleview - 2D Roof Facets
6
Continuous
100
AcDbVertex
100
AcDb3dPolylineVertex
10
0.000000
20
-29.906160
30
-0.000001
70
32
0
VERTEX
5
100
330
FD
100
AcDbEntity
8
Eagleview - 2D Roof Facets
6
Continuous
100
AcDbVertex
100
AcDb3dPolylineVertex
10
8.304163
20
-29.906159
30
-0.000002
70
32
0
SEQEND
5
FE
330
FD
100
AcDbEntity
1001
EVT
1002
{
1000
LineDesc
1000
P11-RIDGE L6
1002
}
0
TEXT
5
101
330
1C
100
AcDbEntity
8
Eagleview - 2D Roof Facets
6
Continuous
100
AcDbText
10
0.000000
20
-62.175097
30
0.000000
40
1.000000
1
Facet: O
100
AcDbText
0
TEXT
5
102
330
1C
100
AcDbEntity
8
Eagleview - 2D Roof Facets
6
Continuous
100
AcDbText
10
0.000000
20
-63.675097
30
0.000000
40
1.000000
1
Pitch: 27
100
AcDbText
0
TEXT
5
103
330
1C
100
AcDbEntity
8
Eagleview - 2D Roof Facets
6
Continuous
100
AcDbText
10
0.000000
20
-65.175097
30
0.000000
40
1.000000
1
Orientation: 302
100
AcDbText
0
TEXT
5
104
330
1C
100
AcDbEntity
8
defpoints
6
Continuous
100
AcDbText
10
88.758050
20
68.503890
30
6.824528
40
1.000000
1
Q
100
AcDbText
0
POLYLINE
5
105
330
1C
100
AcDbEntity
8
Eagleview - 2D Roof Facets
6
Continuous
420
16711680
100
AcDb3dPolyline
10
0.0
20
0.0
30
0.000000
70
9
0
VERTEX
5
107
330
105
100
AcDbEntity
8
Eagleview - 2D Roof Facets
6
Continuous
100
AcDbVertex
100
AcDb3dPolylineVertex
10
26.084134
20
-80.644040
30
-0.000001
70
32
0
VERTEX
5
108
330
105
100
AcDbEntity
8
Eagleview - 2D Roof Facets
6
Continuous
100
AcDbVertex
100
AcDb3dPolylineVertex
10
31.831303
20
-74.175100
30
-0.000001
70
32
0
SEQEND
5
106
330
105
100
AcDbEntity
1001
EVT
1002
{
1000
LineDesc
1000
P12-HIP L4
1002
}
0
POLYLINE
5
109
330
1C
100
AcDbEntity
8
Eagleview - 2D Roof Facets
6
Continuous
420
16711680
100
AcDb3dPolyline
10
0.0
20
0.0
30
0.000000
70
9
0
VERTEX
5
10B
330
109
100
AcDbEntity
8
Eagleview - 2D Roof Facets
6
Continuous
100
AcDbVertex
100
AcDb3dPolylineVertex
10
31.831303
20
-74.175100
30
-0.000001
70
32
0
VERTEX
5
10C
330
109
100
AcDbEntity
8
Eagleview - 2D Roof Facets
6
Continuous
100
AcDbVertex
100
AcDb3dPolylineVertex
10
40.135467
20
-74.175097
30
-0.000003
70
32
0
SEQEND
5
10A
330
109
100
AcDbEntity
1001
EVT
1002
{
1000
LineDesc
1000
P13-RIDGE L6
1002
}
0
POLYLINE
5
10D
330
1C
100
AcDbEntity
8
Eagleview - 2D Roof Facets
6
Continuous
420
255
100
AcDb3dPolyline
10
0.0
20
0.0
30
0.000000
70
9
0
VERTEX
5
10F
330
10D
100
AcDbEntity
8
Eagleview - 2D Roof Facets
6
Continuous
100
AcDbVertex
100
AcDb3dPolylineVertex
10
40.135467
20
-74.175097
30
-0.000003
70
32
0
VERTEX
5
110
330
10D
100
AcDbEntity
8
Eagleview - 2D Roof Facets
6
Continuous
100
AcDbVertex
100
AcDb3dPolylineVertex
10
13.939801
20
-103.660596
30
0.000002
70
32
0
SEQEND
5
10E
330
10D
100
AcDbEntity
1001
EVT
1002
{
1000
LineDesc
1000
P14-VALLEY L12
1002
}
0
POLYLINE
5
111
330
1C
100
AcDbEntity
8
Eagleview - 2D Roof Facets
6
Continuous
420
13994280
100
AcDb3dPolyline
10
0.0
20
0.0
30
0.000000
70
9
0
VERTEX
5
113
330
111
100
AcDbEntity
8
Eagleview - 2D Roof Facets
6
Continuous
100
AcDbVertex
100
AcDb3dPolylineVertex
10
13.939801
20
-103.660596
30
0.000002
70
32
0
VERTEX
5
114
330
111
100
AcDbEntity
8
Eagleview - 2D Roof Facets
6
Continuous
100
AcDbVertex
100
AcDb3dPolylineVertex
10
15.135008
20
-102.932057
30
0.000000
70
32
0
SEQEND
5
112
330
111
100
AcDbEntity
1001
EVT
1002
{
1000
LineDesc
1000
P15-STEPFLASH L13
1002
}
0
POLYLINE
5
115
330
1C
100
AcDbEntity
8
Eagleview - 2D Roof Facets
6
Continuous
420
13994280
100
AcDb3dPolyline
10
0.0
20
0.0
30
0.000000
70
9
0
VERTEX
5
117
330
115
100
AcDbEntity
8
Eagleview - 2D Roof Facets
6
Continuous
100
AcDbVertex
100
AcDb3dPolylineVertex
10
15.135008
20
-102.932057
30
0.000000
70
32
0
VERTEX
5
118
330
115
100
AcDbEntity
8
Eagleview - 2D Roof Facets
6
Continuous
100
AcDbVertex
100
AcDb3dPolylineVertex
10
18.843291
20
-102.932055
30
-0.000000
70
32
0
SEQEND
5
116
330
115
100
AcDbEntity
1001
EVT
1002
{
1000
LineDesc
1000
P16-FLASHING L14
1002
}
0
POLYLINE
5
119
330
1C
100
AcDbEntity
8
Eagleview - 2D Roof Facets
6
Continuous
420
13994280
100
AcDb3dPolyline
10
0.0
20
0.0
30
0.000000
70
9
0
VERTEX
5
11B
330
119
100
AcDbEntity
8
Eagleview - 2D Roof Facets
6
Continuous
100
AcDbVertex
100
AcDb3dPolylineVertex
10
18.843291
20
-102.932055
30
-0.000000
70
32
0
VERTEX
5
11C
330
119
100
AcDbEntity
8
Eagleview - 2D Roof Facets
6
Continuous
100
AcDbVertex
100
AcDb3dPolylineVertex
10
18.860213
20
-103.977772
30
-0.000000
70
32
0
SEQEND
5
11A
330
119
100
AcDbEntity
1001
EVT
1002
{
1000
LineDesc
1000
P17-STEPFLASH L15
1002
}
0
POLYLINE
5
11D
330
1C
100
AcDbEntity
8
Eagleview - 2D Roof Facets
6
Continuous
420
0
100
AcDb3dPolyline
10
0.0
20
0.0
30
0.000000
70
9
0
VERTEX
5
11F
330
11D
100
AcDbEntity
8
Eagleview - 2D Roof Facets
6
Continuous
100
AcDbVertex
100
AcDb3dPolylineVertex
10
18.860213
20
-103.977772
30
-0.000000
70
32
0
VERTEX
5
120
330
11D
100
AcDbEntity
8
Eagleview - 2D Roof Facets
6
Continuous
100
AcDbVertex
100
AcDb3dPolylineVertex
10
0.000000
20
-103.944046
30
0.000003
70
32
0
SEQEND
5
11E
330
11D
100
AcDbEntity
1001
EVT
1002
{
1000
LineDesc
1000
P18-EAVE L16
1002
}
0
POLYLINE
5
121
330
1C
100
AcDbEntity
8
Eagleview - 2D Roof Facets
6
Continuous
420
16711680
100
AcDb3dPolyline
10
0.0
20
0.0
30
0.000000
70
9
0
VERTEX
5
123
330
121
100
AcDbEntity
8
Eagleview - 2D Roof Facets
6
Continuous
100
AcDbVertex
100
AcDb3dPolylineVertex
10
0.000000
20
-103.944046
30
0.000003
70
32
0
VERTEX
5
124
330
121
100
AcDbEntity
8
Eagleview - 2D Roof Facets
6
Continuous
100
AcDbVertex
100
AcDb3dPolylineVertex
10
20.700316
20
-80.644041
30
-0.000000
70
32
0
SEQEND
5
122
330
121
100
AcDbEntity
1001
EVT
1002
{
1000
LineDesc
1000
P19-HIP L17
1002
}
0
POLYLINE
5
125
330
1C
100
AcDbEntity
8
Eagleview - 2D Roof Facets
6
Continuous
420
16711680
100
AcDb3dPolyline
10
0.0
20
0.0
30
0.000000
70
9
0
VERTEX
5
127
330
125
100
AcDbEntity
8
Eagleview - 2D Roof Facets
6
Continuous
100
AcDbVertex
100
AcDb3dPolylineVertex
10
20.700316
20
-80.644041
30
-0.000000
70
32
0
VERTEX
5
128
330
125
100
AcDbEntity
8
Eagleview - 2D Roof Facets
6
Continuous
100
AcDbVertex
100
AcDb3dPolylineVertex
10
26.084134
20
-80.644040
30
-0.000001
70
32
0
SEQEND
5
126
330
125
100
AcDbEntity
1001
EVT
1002
{
1000
LineDesc
1000
P20-RIDGE L11
1002
}
0
TEXT
5
129
330
1C
100
AcDbEntity
8
Eagleview - 2D Roof Facets
6
Continuous
100
AcDbText
10
0.000000
20
-106.477772
30
0.000000
40
1.000000
1
Facet: Q
100
AcDbText
0
TEXT
5
12A
330
1C
100
AcDbEntity
8
Eagleview - 2D Roof Facets
6
Continuous
100
AcDbText
10
0.000000
20
-107.977772
30
0.000000
40
1.000000
1
Pitch: 27
100
AcDbText
0
TEXT
5
12B
330
1C
100
AcDbEntity
8
Eagleview - 2D Roof Facets
6
Continuous
100
AcDbText
10
0.000000
20
-109.477772
30
0.000000
40
1.000000
1
Orientation: 122
100
AcDbText
0
TEXT
5
12C
330
1C
100
AcDbEntity
8
defpoints
6
Continuous
100
AcDbText
10
67.574648
20
71.827968
30
5.347583
40
1.000000
1
J
100
AcDbText
0
POLYLINE
5
12D
330
1C
100
AcDbEntity
8
Eagleview - 2D Roof Facets
6
Continuous
420
255
100
AcDb3dPolyline
10
0.0
20
0.0
30
0.000000
70
9
0
VERTEX
5
12F
330
12D
100
AcDbEntity
8
Eagleview - 2D Roof Facets
6
Continuous
100
AcDbVertex
100
AcDb3dPolylineVertex
10
20.700327
20
-141.777770
30
0.000000
70
32
0
VERTEX
5
130
330
12D
100
AcDbEntity
8
Eagleview - 2D Roof Facets
6
Continuous
100
AcDbVertex
100
AcDb3dPolylineVertex
10
0.000000
20
-118.477772
30
0.000000
70
32
0
SEQEND
5
12E
330
12D
100
AcDbEntity
1001
EVT
1002
{
1000
LineDesc
1000
P21-VALLEY L3
1002
}
0
POLYLINE
5
131
330
1C
100
AcDbEntity
8
Eagleview - 2D Roof Facets
6
Continuous
420
16711680
100
AcDb3dPolyline
10
0.0
20
0.0
30
0.000000
70
9
0
VERTEX
5
133
330
131
100
AcDbEntity
8
Eagleview - 2D Roof Facets
6
Continuous
100
AcDbVertex
100
AcDb3dPolylineVertex
10
0.000000
20
-118.477772
30
0.000000
70
32
0
VERTEX
5
134
330
131
100
AcDbEntity
8
Eagleview - 2D Roof Facets
6
Continuous
100
AcDbVertex
100
AcDb3dPolylineVertex
10
5.383818
20
-118.477772
30
0.000000
70
32
0
SEQEND
5
132
330
131
100
AcDbEntity
1001
EVT
1002
{
1000
LineDesc
1000
P22-RIDGE L11
1002
}
0
POLYLINE
5
135
330
1C
100
AcDbEntity
8
Eagleview - 2D Roof Facets
6
Continuous
420
16711680
100
AcDb3dPolyline
10
0.0
20
0.0
30
0.000000
70
9
0
VERTEX
5
137
330
135
100
AcDbEntity
8
Eagleview - 2D Roof Facets
6
Continuous
100
AcDbVertex
100
AcDb3dPolylineVertex
10
5.383818
20
-118.477772
30
0.000000
70
32
0
VERTEX
5
138
330
135
100
AcDbEntity
8
Eagleview - 2D Roof Facets
6
Continuous
100
AcDbVertex
100
AcDb3dPolylineVertex
10
26.084145
20
-141.777769
30
-0.000000
70
32
0
SEQEND
5
136
330
135
100
AcDbEntity
1001
EVT
1002
{
1000
LineDesc
1000
P23-HIP L19
1002
}
0
POLYLINE
5
139
330
1C
100
AcDbEntity
8
Eagleview - 2D Roof Facets
6
Continuous
420
0
100
AcDb3dPolyline
10
0.0
20
0.0
30
0.000000
70
9
0
VERTEX
5
13B
330
139
100
AcDbEntity
8
Eagleview - 2D Roof Facets
6
Continuous
100
AcDbVertex
100
AcDb3dPolylineVertex
10
26.084145
20
-141.777769
30
-0.000000
70
32
0
VERTEX
5
13C
330
139
100
AcDbEntity
8
Eagleview - 2D Roof Facets
6
Continuous
100
AcDbVertex
100
AcDb3dPolylineVertex
10
20.700327
20
-141.777770
30
0.000000
70
32
0
SEQEND
5
13A
330
139
100
AcDbEntity
1001
EVT
1002
{
1000
LineDesc
1000
P24-EAVE L18
1002
}
0
TEXT
5
13D
330
1C
100
AcDbEntity
8
Eagleview - 2D Roof Facets
6
Continuous
100
AcDbText
10
0.000000
20
-144.277770
30
0.000000
40
1.000000
1
Facet: J
100
AcDbText
0
TEXT
5
13E
330
1C
100
AcDbEntity
8
Eagleview - 2D Roof Facets
6
Continuous
100
AcDbText
10
0.000000
20
-145.777770
30
0.000000
40
1.000000
1
Pitch: 27
100
AcDbText
0
TEXT
5
13F
330
1C
100
AcDbEntity
8
Eagleview - 2D Roof Facets
6
Continuous
100
AcDbText
10
0.000000
20
-147.277770
30
0.000000
40
1.000000
1
Orientation: 302
100
AcDbText
0
TEXT
5
140
330
1C
100
AcDbEntity
8
defpoints
6
Continuous
100
AcDbText
10
69.585148
20
58.716849
30
5.347583
40
1.000000
1
R
100
AcDbText
0
POLYLINE
5
141
330
1C
100
AcDbEntity
8
Eagleview - 2D Roof Facets
6
Continuous
420
255
100
AcDb3dPolyline
10
0.0
20
0.0
30
0.000000
70
9
0
VERTEX
5
143
330
141
100
AcDbEntity
8
Eagleview - 2D Roof Facets
6
Continuous
100
AcDbVertex
100
AcDb3dPolylineVertex
10
18.206335
20
-179.577770
30
-0.000000
70
32
0
VERTEX
5
144
330
141
100
AcDbEntity
8
Eagleview - 2D Roof Facets
6
Continuous
100
AcDbVertex
100
AcDb3dPolylineVertex
10
25.558827
20
-169.833603
30
-0.000000
70
32
0
SEQEND
5
142
330
141
100
AcDbEntity
1001
EVT
1002
{
1000
LineDesc
1000
P25-VALLEY L23
1002
}
0
POLYLINE
5
145
330
1C
100
AcDbEntity
8
Eagleview - 2D Roof Facets
6
Continuous
420
255
100
AcDb3dPolyline
10
0.0
20
0.0
30
0.000000
70
9
0
VERTEX
5
147
330
145
100
AcDbEntity
8
Eagleview - 2D Roof Facets
6
Continuous
100
AcDbVertex
100
AcDb3dPolylineVertex
10
25.558827
20
-169.833603
30
-0.000000
70
32
0
VERTEX
5
148
330
145
100
AcDbEntity
8
Eagleview - 2D Roof Facets
6
Continuous
100
AcDbVertex
100
AcDb3dPolylineVertex
10
32.811960
20
-179.577766
30
-0.000002
70
32
0
SEQEND
5
146
330
145
100
AcDbEntity
1001
EVT
1002
{
1000
LineDesc
1000
P26-VALLEY L22
1002
}
0
POLYLINE
5
149
330
1C
100
AcDbEntity
8
Eagleview - 2D Roof Facets
6
Continuous
420
0
100
AcDb3dPolyline
10
0.0
20
0.0
30
0.000000
70
9
0
VERTEX
5
14B
330
149
100
AcDbEntity
8
Eagleview - 2D Roof Facets
6
Continuous
100
AcDbVertex
100
AcDb3dPolylineVertex
10
32.811960
20
-179.577766
30
-0.000002
70
32
0
VERTEX
5
14C
330
149
100
AcDbEntity
8
Eagleview - 2D Roof Facets
6
Continuous
100
AcDbVertex
100
AcDb3dPolylineVertex
10
41.400646
20
-179.577763
30
-0.000004
70
32
0
SEQEND
5
14A
330
149
100
AcDbEntity
1001
EVT
1002
{
1000
LineDesc
1000
P27-EAVE L20
1002
}
0
POLYLINE
5
14D
330
1C
100
AcDbEntity
8
Eagleview - 2D Roof Facets
6
Continuous
420
16711680
100
AcDb3dPolyline
10
0.0
20
0.0
30
0.000000
70
9
0
VERTEX
5
14F
330
14D
100
AcDbEntity
8
Eagleview - 2D Roof Facets
6
Continuous
100
AcDbVertex
100
AcDb3dPolylineVertex
10
41.400646
20
-179.577763
30
-0.000004
70
32
0
VERTEX
5
150
330
14D
100
AcDbEntity
8
Eagleview - 2D Roof Facets
6
Continuous
100
AcDbVertex
100
AcDb3dPolylineVertex
10
20.700317
20
-156.277770
30
0.000004
70
32
0
SEQEND
5
14E
330
14D
100
AcDbEntity
1001
EVT
1002
{
1000
LineDesc
1000
P28-HIP L17
1002
}
0
POLYLINE
5
151
330
1C
100
AcDbEntity
8
Eagleview - 2D Roof Facets
6
Continuous
420
16711680
100
AcDb3dPolyline
10
0.0
20
0.0
30
0.000000
70
9
0
VERTEX
5
153
330
151
100
AcDbEntity
8
Eagleview - 2D Roof Facets
6
Continuous
100
AcDbVertex
100
AcDb3dPolylineVertex
10
20.700317
20
-156.277770
30
0.000004
70
32
0
VERTEX
5
154
330
151
100
AcDbEntity
8
Eagleview - 2D Roof Facets
6
Continuous
100
AcDbVertex
100
AcDb3dPolylineVertex
10
0.000000
20
-179.577775
30
0.000003
70
32
0
SEQEND
5
152
330
151
100
AcDbEntity
1001
EVT
1002
{
1000
LineDesc
1000
P29-HIP L19
1002
}
0
POLYLINE
5
155
330
1C
100
AcDbEntity
8
Eagleview - 2D Roof Facets
6
Continuous
420
0
100
AcDb3dPolyline
10
0.0
20
0.0
30
0.000000
70
9
0
VERTEX
5
157
330
155
100
AcDbEntity
8
Eagleview - 2D Roof Facets
6
Continuous
100
AcDbVertex
100
AcDb3dPolylineVertex
10
0.000000
20
-179.577775
30
0.000003
70
32
0
VERTEX
5
158
330
155
100
AcDbEntity
8
Eagleview - 2D Roof Facets
6
Continuous
100
AcDbVertex
100
AcDb3dPolylineVertex
10
18.206335
20
-179.577770
30
-0.000000
70
32
0
SEQEND
5
156
330
155
100
AcDbEntity
1001
EVT
1002
{
1000
LineDesc
1000
P30-EAVE L21
1002
}
0
TEXT
5
159
330
1C
100
AcDbEntity
8
Eagleview - 2D Roof Facets
6
Continuous
100
AcDbText
10
0.000000
20
-182.077775
30
0.000000
40
1.000000
1
Facet: R
100
AcDbText
0
TEXT
5
15A
330
1C
100
AcDbEntity
8
Eagleview - 2D Roof Facets
6
Continuous
100
AcDbText
10
0.000000
20
-183.577775
30
0.000000
40
1.000000
1
Pitch: 27
100
AcDbText
0
TEXT
5
15B
330
1C
100
AcDbEntity
8
Eagleview - 2D Roof Facets
6
Continuous
100
AcDbText
10
0.000000
20
-185.077775
30
0.000000
40
1.000000
1
Orientation: 212
100
AcDbText
0
TEXT
5
15C
330
1C
100
AcDbEntity
8
defpoints
6
Continuous
100
AcDbText
10
72.582120
20
53.016547
30
2.185711
40
1.000000
1
F
100
AcDbText
0
POLYLINE
5
15D
330
1C
100
AcDbEntity
8
Eagleview - 2D Roof Facets
6
Continuous
420
16711680
100
AcDb3dPolyline
10
0.0
20
0.0
30
0.000000
70
9
0
VERTEX
5
15F
330
15D
100
AcDbEntity
8
Eagleview - 2D Roof Facets
6
Continuous
100
AcDbVertex
100
AcDb3dPolylineVertex
10
5.035688
20
-194.077775
30
-0.000000
70
32
0
VERTEX
5
160
330
15D
100
AcDbEntity
8
Eagleview - 2D Roof Facets
6
Continuous
100
AcDbVertex
100
AcDb3dPolylineVertex
10
3.502939
20
-196.250965
30
-0.000000
70
32
0
SEQEND
5
15E
330
15D
100
AcDbEntity
1001
EVT
1002
{
1000
LineDesc
1000
P31-HIP L80
1002
}
0
POLYLINE
5
161
330
1C
100
AcDbEntity
8
Eagleview - 2D Roof Facets
6
Continuous
420
16711680
100
AcDb3dPolyline
10
0.0
20
0.0
30
0.000000
70
9
0
VERTEX
5
163
330
161
100
AcDbEntity
8
Eagleview - 2D Roof Facets
6
Continuous
100
AcDbVertex
100
AcDb3dPolylineVertex
10
3.502939
20
-196.250965
30
-0.000000
70
32
0
VERTEX
5
164
330
161
100
AcDbEntity
8
Eagleview - 2D Roof Facets
6
Continuous
100
AcDbVertex
100
AcDb3dPolylineVertex
10
0.000000
20
-204.738622
30
0.000000
70
32
0
SEQEND
5
162
330
161
100
AcDbEntity
1001
EVT
1002
{
1000
LineDesc
1000
P32-HIP L81
1002
}
0
POLYLINE
5
165
330
1C
100
AcDbEntity
8
Eagleview - 2D Roof Facets
6
Continuous
420
0
100
AcDb3dPolyline
10
0.0
20
0.0
30
0.000000
70
9
0
VERTEX
5
167
330
165
100
AcDbEntity
8
Eagleview - 2D Roof Facets
6
Continuous
100
AcDbVertex
100
AcDb3dPolylineVertex
10
0.000000
20
-204.738622
30
0.000000
70
32
0
VERTEX
5
168
330
165
100
AcDbEntity
8
Eagleview - 2D Roof Facets
6
Continuous
100
AcDbVertex
100
AcDb3dPolylineVertex
10
9.513305
20
-204.738622
30
0.000000
70
32
0
SEQEND
5
166
330
165
100
AcDbEntity
1001
EVT
1002
{
1000
LineDesc
1000
P33-EAVE L25
1002
}
0
POLYLINE
5
169
330
1C
100
AcDbEntity
8
Eagleview - 2D Roof Facets
6
Continuous
420
16711680
100
AcDb3dPolyline
10
0.0
20
0.0
30
0.000000
70
9
0
VERTEX
5
16B
330
169
100
AcDbEntity
8
Eagleview - 2D Roof Facets
6
Continuous
100
AcDbVertex
100
AcDb3dPolylineVertex
10
9.513305
20
-204.738622
30
0.000000
70
32
0
VERTEX
5
16C
330
169
100
AcDbEntity
8
Eagleview - 2D Roof Facets
6
Continuous
100
AcDbVertex
100
AcDb3dPolylineVertex
10
6.503852
20
-196.187912
30
-0.000000
70
32
0
SEQEND
5
16A
330
169
100
AcDbEntity
1001
EVT
1002
{
1000
LineDesc
1000
P34-HIP L79
1002
}
0
POLYLINE
5
16D
330
1C
100
AcDbEntity
8
Eagleview - 2D Roof Facets
6
Continuous
420
16711680
100
AcDb3dPolyline
10
0.0
20
0.0
30
0.000000
70
9
0
VERTEX
5
16F
330
16D
100
AcDbEntity
8
Eagleview - 2D Roof Facets
6
Continuous
100
AcDbVertex
100
AcDb3dPolylineVertex
10
6.503852
20
-196.187912
30
-0.000000
70
32
0
VERTEX
5
170
330
16D
100
AcDbEntity
8
Eagleview - 2D Roof Facets
6
Continuous
100
AcDbVertex
100
AcDb3dPolylineVertex
10
5.035688
20
-194.077775
30
-0.000000
70
32
0
SEQEND
5
16E
330
16D
100
AcDbEntity
1001
EVT
1002
{
1000
LineDesc
1000
P35-HIP L78
1002
}
0
TEXT
5
171
330
1C
100
AcDbEntity
8
Eagleview - 2D Roof Facets
6
Continuous
100
AcDbText
10
0.000000
20
-207.238622
30
0.000000
40
1.000000
1
Facet: F
100
AcDbText
0
TEXT
5
172
330
1C
100
AcDbEntity
8
Eagleview - 2D Roof Facets
6
Continuous
100
AcDbText
10
0.000000
20
-208.738622
30
0.000000
40
1.000000
1
Pitch: 25
100
AcDbText
0
TEXT
5
173
330
1C
100
AcDbEntity
8
Eagleview - 2D Roof Facets
6
Continuous
100
AcDbText
10
0.000000
20
-210.238622
30
0.000000
40
1.000000
1
Orientation: 212
100
AcDbText
0
TEXT
5
174
330
1C
100
AcDbEntity
8
defpoints
6
Continuous
100
AcDbText
10
79.293532
20
81.561991
30
7.040204
40
1.000000
1
S
100
AcDbText
0
POLYLINE
5
175
330
1C
100
AcDbEntity
8
Eagleview - 2D Roof Facets
6
Continuous
420
255
100
AcDb3dPolyline
10
0.0
20
0.0
30
0.000000
70
9
0
VERTEX
5
177
330
175
100
AcDbEntity
8
Eagleview - 2D Roof Facets
6
Continuous
100
AcDbVertex
100
AcDb3dPolylineVertex
10
0.201029
20
-248.991582
30
0.000000
70
32
0
VERTEX
5
178
330
175
100
AcDbEntity
8
Eagleview - 2D Roof Facets
6
Continuous
100
AcDbVertex
100
AcDb3dPolylineVertex
10
26.081243
20
-219.861166
30
-0.000000
70
32
0
SEQEND
5
176
330
175
100
AcDbEntity
1001
EVT
1002
{
1000
LineDesc
1000
P36-VALLEY L10
1002
}
0
POLYLINE
5
179
330
1C
100
AcDbEntity
8
Eagleview - 2D Roof Facets
6
Continuous
420
255
100
AcDb3dPolyline
10
0.0
20
0.0
30
0.000000
70
9
0
VERTEX
5
17B
330
179
100
AcDbEntity
8
Eagleview - 2D Roof Facets
6
Continuous
100
AcDbVertex
100
AcDb3dPolylineVertex
10
26.081243
20
-219.861166
30
-0.000000
70
32
0
VERTEX
5
17C
330
179
100
AcDbEntity
8
Eagleview - 2D Roof Facets
6
Continuous
100
AcDbVertex
100
AcDb3dPolylineVertex
10
52.276919
20
-249.346657
30
-0.000000
70
32
0
SEQEND
5
17A
330
179
100
AcDbEntity
1001
EVT
1002
{
1000
LineDesc
1000
P37-VALLEY L12
1002
}
0
POLYLINE
5
17D
330
1C
100
AcDbEntity
8
Eagleview - 2D Roof Facets
6
Continuous
420
65280
100
AcDb3dPolyline
10
0.0
20
0.0
30
0.000000
70
9
0
VERTEX
5
17F
330
17D
100
AcDbEntity
8
Eagleview - 2D Roof Facets
6
Continuous
100
AcDbVertex
100
AcDb3dPolylineVertex
10
52.276919
20
-249.346657
30
-0.000000
70
32
0
VERTEX
5
180
330
17D
100
AcDbEntity
8
Eagleview - 2D Roof Facets
6
Continuous
100
AcDbVertex
100
AcDb3dPolylineVertex
10
52.558707
20
-219.238622
30
-0.000001
70
32
0
SEQEND
5
17E
330
17D
100
AcDbEntity
1001
EVT
1002
{
1000
LineDesc
1000
P38-RAKE L27
1002
}
0
POLYLINE
5
181
330
1C
100
AcDbEntity
8
Eagleview - 2D Roof Facets
6
Continuous
420
16711680
100
AcDb3dPolyline
10
0.0
20
0.0
30
0.000000
70
9
0
VERTEX
5
183
330
181
100
AcDbEntity
8
Eagleview - 2D Roof Facets
6
Continuous
100
AcDbVertex
100
AcDb3dPolylineVertex
10
52.558707
20
-219.238622
30
-0.000001
70
32
0
VERTEX
5
184
330
181
100
AcDbEntity
8
Eagleview - 2D Roof Facets
6
Continuous
100
AcDbVertex
100
AcDb3dPolylineVertex
10
0.000000
20
-219.238625
30
0.000001
70
32
0
SEQEND
5
182
330
181
100
AcDbEntity
1001
EVT
1002
{
1000
LineDesc
1000
P39-RIDGE L28
1002
}
0
POLYLINE
5
185
330
1C
100
AcDbEntity
8
Eagleview - 2D Roof Facets
6
Continuous
420
65280
100
AcDb3dPolyline
10
0.0
20
0.0
30
0.000000
70
9
0
VERTEX
5
187
330
185
100
AcDbEntity
8
Eagleview - 2D Roof Facets
6
Continuous
100
AcDbVertex
100
AcDb3dPolylineVertex
10
0.000000
20
-219.238625
30
0.000001
70
32
0
VERTEX
5
188
330
185
100
AcDbEntity
8
Eagleview - 2D Roof Facets
6
Continuous
100
AcDbVertex
100
AcDb3dPolylineVertex
10
0.201029
20
-248.991582
30
0.000000
70
32
0
SEQEND
5
186
330
185
100
AcDbEntity
1001
EVT
1002
{
1000
LineDesc
1000
P40-RAKE L26
1002
}
0
TEXT
5
189
330
1C
100
AcDbEntity
8
Eagleview - 2D Roof Facets
6
Continuous
100
AcDbText
10
0.000000
20
-251.846657
30
0.000000
40
1.000000
1
Facet: S
100
AcDbText
0
TEXT
5
18A
330
1C
100
AcDbEntity
8
Eagleview - 2D Roof Facets
6
Continuous
100
AcDbText
10
0.000000
20
-253.346657
30
0.000000
40
1.000000
1
Pitch: 27
100
AcDbText
0
TEXT
5
18B
330
1C
100
AcDbEntity
8
Eagleview - 2D Roof Facets
6
Continuous
100
AcDbText
10
0.000000
20
-254.846657
30
0.000000
40
1.000000
1
Orientation: 212
100
AcDbText
0
TEXT
5
18C
330
1C
100
AcDbEntity
8
defpoints
6
Continuous
100
AcDbText
10
95.516571
20
103.721031
30
6.975150
40
1.000000
1
T
100
AcDbText
0
POLYLINE
5
18D
330
1C
100
AcDbEntity
8
Eagleview - 2D Roof Facets
6
Continuous
420
255
100
AcDb3dPolyline
10
0.0
20
0.0
30
0.000000
70
9
0
VERTEX
5
18F
330
18D
100
AcDbEntity
8
Eagleview - 2D Roof Facets
6
Continuous
100
AcDbVertex
100
AcDb3dPolylineVertex
10
43.761323
20
-277.511845
30
-0.000000
70
32
0
VERTEX
5
190
330
18D
100
AcDbEntity
8
Eagleview - 2D Roof Facets
6
Continuous
100
AcDbVertex
100
AcDb3dPolylineVertex
10
34.837371
20
-287.489126
30
-0.000000
70
32
0
SEQEND
5
18E
330
18D
100
AcDbEntity
1001
EVT
1002
{
1000
LineDesc
1000
P41-VALLEY L39
1002
}
0
POLYLINE
5
191
330
1C
100
AcDbEntity
8
Eagleview - 2D Roof Facets
6
Continuous
420
16777215
100
AcDb3dPolyline
10
0.0
20
0.0
30
0.000000
70
9
0
VERTEX
5
193
330
191
100
AcDbEntity
8
Eagleview - 2D Roof Facets
6
Continuous
100
AcDbVertex
100
AcDb3dPolylineVertex
10
34.837371
20
-287.489126
30
-0.000000
70
32
0
VERTEX
5
194
330
191
100
AcDbEntity
8
Eagleview - 2D Roof Facets
6
Continuous
100
AcDbVertex
100
AcDb3dPolylineVertex
10
31.728202
20
-285.246702
30
0.000000
70
32
0
SEQEND
5
192
330
191
100
AcDbEntity
1001
EVT
1002
{
1000
LineDesc
1000
P42-HIDDEN L41
1002
}
0
POLYLINE
5
195
330
1C
100
AcDbEntity
8
Eagleview - 2D Roof Facets
6
Continuous
420
13994280
100
AcDb3dPolyline
10
0.0
20
0.0
30
0.000000
70
9
0
VERTEX
5
197
330
195
100
AcDbEntity
8
Eagleview - 2D Roof Facets
6
Continuous
100
AcDbVertex
100
AcDb3dPolylineVertex
10
31.728202
20
-285.246702
30
0.000000
70
32
0
VERTEX
5
198
330
195
100
AcDbEntity
8
Eagleview - 2D Roof Facets
6
Continuous
100
AcDbVertex
100
AcDb3dPolylineVertex
10
31.772780
20
-274.292779
30
0.000000
70
32
0
SEQEND
5
196
330
195
100
AcDbEntity
1001
EVT
1002
{
1000
LineDesc
1000
P43-STEPFLASH L42
1002
}
0
POLYLINE
5
199
330
1C
100
AcDbEntity
8
Eagleview - 2D Roof Facets
6
Continuous
420
13994280
100
AcDb3dPolyline
10
0.0
20
0.0
30
0.000000
70
9
0
VERTEX
5
19B
330
199
100
AcDbEntity
8
Eagleview - 2D Roof Facets
6
Continuous
100
AcDbVertex
100
AcDb3dPolylineVertex
10
31.772780
20
-274.292779
30
0.000000
70
32
0
VERTEX
5
19C
330
199
100
AcDbEntity
8
Eagleview - 2D Roof Facets
6
Continuous
100
AcDbVertex
100
AcDb3dPolylineVertex
10
34.922418
20
-274.292779
30
0.000000
70
32
0
SEQEND
5
19A
330
199
100
AcDbEntity
1001
EVT
1002
{
1000
LineDesc
1000
P44-FLASHING L44
1002
}
0
POLYLINE
5
19D
330
1C
100
AcDbEntity
8
Eagleview - 2D Roof Facets
6
Continuous
420
255
100
AcDb3dPolyline
10
0.0
20
0.0
30
0.000000
70
9
0
VERTEX
5
19F
330
19D
100
AcDbEntity
8
Eagleview - 2D Roof Facets
6
Continuous
100
AcDbVertex
100
AcDb3dPolylineVertex
10
34.922418
20
-274.292779
30
0.000000
70
32
0
VERTEX
5
1A0
330
19D
100
AcDbEntity
8
Eagleview - 2D Roof Facets
6
Continuous
100
AcDbVertex
100
AcDb3dPolylineVertex
10
29.449516
20
-268.173884
30
-0.000001
70
32
0
SEQEND
5
19E
330
19D
100
AcDbEntity
1001
EVT
1002
{
1000
LineDesc
1000
P45-VALLEY L45
1002
}
0
POLYLINE
5
1A1
330
1C
100
AcDbEntity
8
Eagleview - 2D Roof Facets
6
Continuous
420
255
100
AcDb3dPolyline
10
0.0
20
0.0
30
0.000000
70
9
0
VERTEX
5
1A3
330
1A1
100
AcDbEntity
8
Eagleview - 2D Roof Facets
6
Continuous
100
AcDbVertex
100
AcDb3dPolylineVertex
10
29.449516
20
-268.173884
30
-0.000001
70
32
0
VERTEX
5
1A4
330
1A1
100
AcDbEntity
8
Eagleview - 2D Roof Facets
6
Continuous
100
AcDbVertex
100
AcDb3dPolylineVertex
10
24.190609
20
-274.053522
30
-0.000000
70
32
0
SEQEND
5
1A2
330
1A1
100
AcDbEntity
1001
EVT
1002
{
1000
LineDesc
1000
P46-VALLEY L46
1002
}
0
POLYLINE
5
1A5
330
1C
100
AcDbEntity
8
Eagleview - 2D Roof Facets
6
Continuous
420
13994280
100
AcDb3dPolyline
10
0.0
20
0.0
30
0.000000
70
9
0
VERTEX
5
1A7
330
1A5
100
AcDbEntity
8
Eagleview - 2D Roof Facets
6
Continuous
100
AcDbVertex
100
AcDb3dPolylineVertex
10
24.190609
20
-274.053522
30
-0.000000
70
32
0
VERTEX
5
1A8
330
1A5
100
AcDbEntity
8
Eagleview - 2D Roof Facets
6
Continuous
100
AcDbVertex
100
AcDb3dPolylineVertex
10
26.851716
20
-274.053523
30
0.000000
70
32
0
SEQEND
5
1A6
330
1A5
100
AcDbEntity
1001
EVT
1002
{
1000
LineDesc
1000
P47-FLASHING L47
1002
}
0
POLYLINE
5
1A9
330
1C
100
AcDbEntity
8
Eagleview - 2D Roof Facets
6
Continuous
420
13994280
100
AcDb3dPolyline
10
0.0
20
0.0
30
0.000000
70
9
0
VERTEX
5
1AB
330
1A9
100
AcDbEntity
8
Eagleview - 2D Roof Facets
6
Continuous
100
AcDbVertex
100
AcDb3dPolylineVertex
10
26.851716
20
-274.053523
30
0.000000
70
32
0
VERTEX
5
1AC
330
1A9
100
AcDbEntity
8
Eagleview - 2D Roof Facets
6
Continuous
100
AcDbVertex
100
AcDb3dPolylineVertex
10
26.893943
20
-285.246701
30
-0.000000
70
32
0
SEQEND
5
1AA
330
1A9
100
AcDbEntity
1001
EVT
1002
{
1000
LineDesc
1000
P48-STEPFLASH L48
1002
}
0
POLYLINE
5
1AD
330
1C
100
AcDbEntity
8
Eagleview - 2D Roof Facets
6
Continuous
420
13994280
100
AcDb3dPolyline
10
0.0
20
0.0
30
0.000000
70
9
0
VERTEX
5
1AF
330
1AD
100
AcDbEntity
8
Eagleview - 2D Roof Facets
6
Continuous
100
AcDbVertex
100
AcDb3dPolylineVertex
10
26.893943
20
-285.246701
30
-0.000000
70
32
0
VERTEX
5
1B0
330
1AD
100
AcDbEntity
8
Eagleview - 2D Roof Facets
6
Continuous
100
AcDbVertex
100
AcDb3dPolylineVertex
10
31.728202
20
-285.246702
30
0.000000
70
32
0
SEQEND
5
1AE
330
1AD
100
AcDbEntity
1001
EVT
1002
{
1000
LineDesc
1000
P49-FLASHING L43
1002
}
0
POLYLINE
5
1B1
330
1C
100
AcDbEntity
8
Eagleview - 2D Roof Facets
6
Continuous
420
13994280
100
AcDb3dPolyline
10
0.0
20
0.0
30
0.000000
70
9
0
VERTEX
5
1B3
330
1B1
100
AcDbEntity
8
Eagleview - 2D Roof Facets
6
Continuous
100
AcDbVertex
100
AcDb3dPolylineVertex
10
34.837371
20
-287.489126
30
-0.000000
70
32
0
VERTEX
5
1B4
330
1B1
100
AcDbEntity
8
Eagleview - 2D Roof Facets
6
Continuous
100
AcDbVertex
100
AcDb3dPolylineVertex
10
36.285367
20
-287.489127
30
0.000000
70
32
0
SEQEND
5
1B2
330
1B1
100
AcDbEntity
1001
EVT
1002
{
1000
LineDesc
1000
P50-STEPFLASH L38
1002
}
0
POLYLINE
5
1B5
330
1C
100
AcDbEntity
8
Eagleview - 2D Roof Facets
6
Continuous
420
13994280
100
AcDb3dPolyline
10
0.0
20
0.0
30
0.000000
70
9
0
VERTEX
5
1B7
330
1B5
100
AcDbEntity
8
Eagleview - 2D Roof Facets
6
Continuous
100
AcDbVertex
100
AcDb3dPolylineVertex
10
36.285367
20
-287.489127
30
0.000000
70
32
0
VERTEX
5
1B8
330
1B5
100
AcDbEntity
8
Eagleview - 2D Roof Facets
6
Continuous
100
AcDbVertex
100
AcDb3dPolylineVertex
10
36.370934
20
-290.860386
30
0.000002
70
32
0
SEQEND
5
1B6
330
1B5
100
AcDbEntity
1001
EVT
1002
{
1000
LineDesc
1000
P51-STEPFLASH L37
1002
}
0
POLYLINE
5
1B9
330
1C
100
AcDbEntity
8
Eagleview - 2D Roof Facets
6
Continuous
420
0
100
AcDb3dPolyline
10
0.0
20
0.0
30
0.000000
70
9
0
VERTEX
5
1BB
330
1B9
100
AcDbEntity
8
Eagleview - 2D Roof Facets
6
Continuous
100
AcDbVertex
100
AcDb3dPolylineVertex
10
36.370934
20
-290.860386
30
0.000002
70
32
0
VERTEX
5
1BC
330
1B9
100
AcDbEntity
8
Eagleview - 2D Roof Facets
6
Continuous
100
AcDbVertex
100
AcDb3dPolylineVertex
10
25.151248
20
-290.860381
30
0.000000
70
32
0
SEQEND
5
1BA
330
1B9
100
AcDbEntity
1001
EVT
1002
{
1000
LineDesc
1000
P52-EAVE L36
1002
}
0
POLYLINE
5
1BD
330
1C
100
AcDbEntity
8
Eagleview - 2D Roof Facets
6
Continuous
420
255
100
AcDb3dPolyline
10
0.0
20
0.0
30
0.000000
70
9
0
VERTEX
5
1BF
330
1BD
100
AcDbEntity
8
Eagleview - 2D Roof Facets
6
Continuous
100
AcDbVertex
100
AcDb3dPolylineVertex
10
25.151248
20
-290.860381
30
0.000000
70
32
0
VERTEX
5
1C0
330
1BD
100
AcDbEntity
8
Eagleview - 2D Roof Facets
6
Continuous
100
AcDbVertex
100
AcDb3dPolylineVertex
10
16.679426
20
-281.388598
30
-0.000001
70
32
0
SEQEND
5
1BE
330
1BD
100
AcDbEntity
1001
EVT
1002
{
1000
LineDesc
1000
P53-VALLEY L35
1002
}
0
POLYLINE
5
1C1
330
1C
100
AcDbEntity
8
Eagleview - 2D Roof Facets
6
Continuous
420
255
100
AcDb3dPolyline
10
0.0
20
0.0
30
0.000000
70
9
0
VERTEX
5
1C3
330
1C1
100
AcDbEntity
8
Eagleview - 2D Roof Facets
6
Continuous
100
AcDbVertex
100
AcDb3dPolylineVertex
10
16.679426
20
-281.388598
30
-0.000001
70
32
0
VERTEX
5
1C4
330
1C1
100
AcDbEntity
8
Eagleview - 2D Roof Facets
6
Continuous
100
AcDbVertex
100
AcDb3dPolylineVertex
10
4.468819
20
-295.040472
30
-0.000000
70
32
0
SEQEND
5
1C2
330
1C1
100
AcDbEntity
1001
EVT
1002
{
1000
LineDesc
1000
P54-VALLEY L34
1002
}
0
POLYLINE
5
1C5
330
1C
100
AcDbEntity
8
Eagleview - 2D Roof Facets
6
Continuous
420
0
100
AcDb3dPolyline
10
0.0
20
0.0
30
0.000000
70
9
0
VERTEX
5
1C7
330
1C5
100
AcDbEntity
8
Eagleview - 2D Roof Facets
6
Continuous
100
AcDbVertex
100
AcDb3dPolylineVertex
10
4.468819
20
-295.040472
30
-0.000000
70
32
0
VERTEX
5
1C8
330
1C5
100
AcDbEntity
8
Eagleview - 2D Roof Facets
6
Continuous
100
AcDbVertex
100
AcDb3dPolylineVertex
10
0.000000
20
-295.040473
30
0.000000
70
32
0
SEQEND
5
1C6
330
1C5
100
AcDbEntity
1001
EVT
1002
{
1000
LineDesc
1000
P55-EAVE L33
1002
}
0
POLYLINE
5
1C9
330
1C
100
AcDbEntity
8
Eagleview - 2D Roof Facets
6
Continuous
420
65280
100
AcDb3dPolyline
10
0.0
20
0.0
30
0.000000
70
9
0
VERTEX
5
1CB
330
1C9
100
AcDbEntity
8
Eagleview - 2D Roof Facets
6
Continuous
100
AcDbVertex
100
AcDb3dPolylineVertex
10
0.000000
20
-295.040473
30
0.000000
70
32
0
VERTEX
5
1CC
330
1C9
100
AcDbEntity
8
Eagleview - 2D Roof Facets
6
Continuous
100
AcDbVertex
100
AcDb3dPolylineVertex
10
0.000003
20
-282.949487
30
-0.000001
70
32
0
SEQEND
5
1CA
330
1C9
100
AcDbEntity
1001
EVT
1002
{
1000
LineDesc
1000
P56-RAKE L32
1002
}
0
POLYLINE
5
1CD
330
1C
100
AcDbEntity
8
Eagleview - 2D Roof Facets
6
Continuous
420
16711680
100
AcDb3dPolyline
10
0.0
20
0.0
30
0.000000
70
9
0
VERTEX
5
1CF
330
1CD
100
AcDbEntity
8
Eagleview - 2D Roof Facets
6
Continuous
100
AcDbVertex
100
AcDb3dPolylineVertex
10
0.000003
20
-282.949487
30
-0.000001
70
32
0
VERTEX
5
1D0
330
1CD
100
AcDbEntity
8
Eagleview - 2D Roof Facets
6
Continuous
100
AcDbVertex
100
AcDb3dPolylineVertex
10
4.958833
20
-282.949491
30
0.000001
70
32
0
SEQEND
5
1CE
330
1CD
100
AcDbEntity
1001
EVT
1002
{
1000
LineDesc
1000
P57-RIDGE L31
1002
}
0
POLYLINE
5
1D1
330
1C
100
AcDbEntity
8
Eagleview - 2D Roof Facets
6
Continuous
420
65280
100
AcDb3dPolyline
10
0.0
20
0.0
30
0.000000
70
9
0
VERTEX
5
1D3
330
1D1
100
AcDbEntity
8
Eagleview - 2D Roof Facets
6
Continuous
100
AcDbVertex
100
AcDb3dPolylineVertex
10
4.958833
20
-282.949491
30
0.000001
70
32
0
VERTEX
5
1D4
330
1D1
100
AcDbEntity
8
Eagleview - 2D Roof Facets
6
Continuous
100
AcDbVertex
100
AcDb3dPolylineVertex
10
4.958834
20
-263.846657
30
-0.000001
70
32
0
SEQEND
5
1D2
330
1D1
100
AcDbEntity
1001
EVT
1002
{
1000
LineDesc
1000
P58-RAKE L29
1002
}
0
POLYLINE
5
1D5
330
1C
100
AcDbEntity
8
Eagleview - 2D Roof Facets
6
Continuous
420
16711680
100
AcDb3dPolyline
10
0.0
20
0.0
30
0.000000
70
9
0
VERTEX
5
1D7
330
1D5
100
AcDbEntity
8
Eagleview - 2D Roof Facets
6
Continuous
100
AcDbVertex
100
AcDb3dPolylineVertex
10
4.958834
20
-263.846657
30
-0.000001
70
32
0
VERTEX
5
1D8
330
1D5
100
AcDbEntity
8
Eagleview - 2D Roof Facets
6
Continuous
100
AcDbVertex
100
AcDb3dPolylineVertex
10
57.517542
20
-263.846659
30
-0.000000
70
32
0
SEQEND
5
1D6
330
1D5
100
AcDbEntity
1001
EVT
1002
{
1000
LineDesc
1000
P59-RIDGE L28
1002
}
0
POLYLINE
5
1D9
330
1C
100
AcDbEntity
8
Eagleview - 2D Roof Facets
6
Continuous
420
65280
100
AcDb3dPolyline
10
0.0
20
0.0
30
0.000000
70
9
0
VERTEX
5
1DB
330
1D9
100
AcDbEntity
8
Eagleview - 2D Roof Facets
6
Continuous
100
AcDbVertex
100
AcDb3dPolylineVertex
10
57.517542
20
-263.846659
30
-0.000000
70
32
0
VERTEX
5
1DC
330
1D9
100
AcDbEntity
8
Eagleview - 2D Roof Facets
6
Continuous
100
AcDbVertex
100
AcDb3dPolylineVertex
10
57.159567
20
-292.491541
30
0.000001
70
32
0
SEQEND
5
1DA
330
1D9
100
AcDbEntity
1001
EVT
1002
{
1000
LineDesc
1000
P60-RAKE L30
1002
}
0
POLYLINE
5
1DD
330
1C
100
AcDbEntity
8
Eagleview - 2D Roof Facets
6
Continuous
420
255
100
AcDb3dPolyline
10
0.0
20
0.0
30
0.000000
70
9
0
VERTEX
5
1DF
330
1DD
100
AcDbEntity
8
Eagleview - 2D Roof Facets
6
Continuous
100
AcDbVertex
100
AcDb3dPolylineVertex
10
57.159567
20
-292.491541
30
0.000001
70
32
0
VERTEX
5
1E0
330
1DD
100
AcDbEntity
8
Eagleview - 2D Roof Facets
6
Continuous
100
AcDbVertex
100
AcDb3dPolylineVertex
10
43.761323
20
-277.511845
30
-0.000000
70
32
0
SEQEND
5
1DE
330
1DD
100
AcDbEntity
1001
EVT
1002
{
1000
LineDesc
1000
P61-VALLEY L40
1002
}
0
TEXT
5
1E1
330
1C
100
AcDbEntity
8
Eagleview - 2D Roof Facets
6
Continuous
100
AcDbText
10
0.000000
20
-297.540473
30
0.000000
40
1.000000
1
Facet: T
100
AcDbText
0
TEXT
5
1E2
330
1C
100
AcDbEntity
8
Eagleview - 2D Roof Facets
6
Continuous
100
AcDbText
10
0.000000
20
-299.040473
30
0.000000
40
1.000000
1
Pitch: 27
100
AcDbText
0
TEXT
5
1E3
330
1C
100
AcDbEntity
8
Eagleview - 2D Roof Facets
6
Continuous
100
AcDbText
10
0.000000
20
-300.540473
30
0.000000
40
1.000000
1
Orientation: 31
100
AcDbText
0
TEXT
5
1E4
330
1C
100
AcDbEntity
8
defpoints
6
Continuous
100
AcDbText
10
83.593869
20
122.846688
30
4.399477
40
1.000000
1
N
100
AcDbText
0
POLYLINE
5
1E5
330
1C
100
AcDbEntity
8
Eagleview - 2D Roof Facets
6
Continuous
420
255
100
AcDb3dPolyline
10
0.0
20
0.0
30
0.000000
70
9
0
VERTEX
5
1E7
330
1E5
100
AcDbEntity
8
Eagleview - 2D Roof Facets
6
Continuous
100
AcDbVertex
100
AcDb3dPolylineVertex
10
8.640877
20
-324.520167
30
-0.000000
70
32
0
VERTEX
5
1E8
330
1E5
100
AcDbEntity
8
Eagleview - 2D Roof Facets
6
Continuous
100
AcDbVertex
100
AcDb3dPolylineVertex
10
22.039126
20
-309.540476
30
0.000000
70
32
0
SEQEND
5
1E6
330
1E5
100
AcDbEntity
1001
EVT
1002
{
1000
LineDesc
1000
P62-VALLEY L40
1002
}
0
POLYLINE
5
1E9
330
1C
100
AcDbEntity
8
Eagleview - 2D Roof Facets
6
Continuous
420
16711680
100
AcDb3dPolyline
10
0.0
20
0.0
30
0.000000
70
9
0
VERTEX
5
1EB
330
1E9
100
AcDbEntity
8
Eagleview - 2D Roof Facets
6
Continuous
100
AcDbVertex
100
AcDb3dPolylineVertex
10
22.039126
20
-309.540476
30
0.000000
70
32
0
VERTEX
5
1EC
330
1E9
100
AcDbEntity
8
Eagleview - 2D Roof Facets
6
Continuous
100
AcDbVertex
100
AcDb3dPolylineVertex
10
4.306737
20
-309.540473
30
-0.000002
70
32
0
SEQEND
5
1EA
330
1E9
100
AcDbEntity
1001
EVT
1002
{
1000
LineDesc
1000
P63-RIDGE L49
1002
}
0
POLYLINE
5
1ED
330
1C
100
AcDbEntity
8
Eagleview - 2D Roof Facets
6
Continuous
420
65280
100
AcDb3dPolyline
10
0.0
20
0.0
30
0.000000
70
9
0
VERTEX
5
1EF
330
1ED
100
AcDbEntity
8
Eagleview - 2D Roof Facets
6
Continuous
100
AcDbVertex
100
AcDb3dPolylineVertex
10
4.306737
20
-309.540473
30
-0.000002
70
32
0
VERTEX
5
1F0
330
1ED
100
AcDbEntity
8
Eagleview - 2D Roof Facets
6
Continuous
100
AcDbVertex
100
AcDb3dPolylineVertex
10
4.306738
20
-317.052526
30
0.000000
70
32
0
SEQEND
5
1EE
330
1ED
100
AcDbEntity
1001
EVT
1002
{
1000
LineDesc
1000
P64-RAKE L51
1002
}
0
POLYLINE
5
1F1
330
1C
100
AcDbEntity
8
Eagleview - 2D Roof Facets
6
Continuous
420
16711680
100
AcDb3dPolyline
10
0.0
20
0.0
30
0.000000
70
9
0
VERTEX
5
1F3
330
1F1
100
AcDbEntity
8
Eagleview - 2D Roof Facets
6
Continuous
100
AcDbVertex
100
AcDb3dPolylineVertex
10
4.306738
20
-317.052526
30
0.000000
70
32
0
VERTEX
5
1F4
330
1F1
100
AcDbEntity
8
Eagleview - 2D Roof Facets
6
Continuous
100
AcDbVertex
100
AcDb3dPolylineVertex
10
0.000000
20
-317.052522
30
-0.000001
70
32
0
SEQEND
5
1F2
330
1F1
100
AcDbEntity
1001
EVT
1002
{
1000
LineDesc
1000
P65-RIDGE L52
1002
}
0
POLYLINE
5
1F5
330
1C
100
AcDbEntity
8
Eagleview - 2D Roof Facets
6
Continuous
420
65280
100
AcDb3dPolyline
10
0.0
20
0.0
30
0.000000
70
9
0
VERTEX
5
1F7
330
1F5
100
AcDbEntity
8
Eagleview - 2D Roof Facets
6
Continuous
100
AcDbVertex
100
AcDb3dPolylineVertex
10
0.000000
20
-317.052522
30
-0.000001
70
32
0
VERTEX
5
1F8
330
1F5
100
AcDbEntity
8
Eagleview - 2D Roof Facets
6
Continuous
100
AcDbVertex
100
AcDb3dPolylineVertex
10
0.000000
20
-324.922670
30
-0.000000
70
32
0
SEQEND
5
1F6
330
1F5
100
AcDbEntity
1001
EVT
1002
{
1000
LineDesc
1000
P66-RAKE L53
1002
}
0
POLYLINE
5
1F9
330
1C
100
AcDbEntity
8
Eagleview - 2D Roof Facets
6
Continuous
420
0
100
AcDb3dPolyline
10
0.0
20
0.0
30
0.000000
70
9
0
VERTEX
5
1FB
330
1F9
100
AcDbEntity
8
Eagleview - 2D Roof Facets
6
Continuous
100
AcDbVertex
100
AcDb3dPolylineVertex
10
0.000000
20
-324.922670
30
-0.000000
70
32
0
VERTEX
5
1FC
330
1F9
100
AcDbEntity
8
Eagleview - 2D Roof Facets
6
Continuous
100
AcDbVertex
100
AcDb3dPolylineVertex
10
10.537891
20
-324.922674
30
0.000002
70
32
0
SEQEND
5
1FA
330
1F9
100
AcDbEntity
1001
EVT
1002
{
1000
LineDesc
1000
P67-EAVE L54
1002
}
0
POLYLINE
5
1FD
330
1C
100
AcDbEntity
8
Eagleview - 2D Roof Facets
6
Continuous
420
65280
100
AcDb3dPolyline
10
0.0
20
0.0
30
0.000000
70
9
0
VERTEX
5
1FF
330
1FD
100
AcDbEntity
8
Eagleview - 2D Roof Facets
6
Continuous
100
AcDbVertex
100
AcDb3dPolylineVertex
10
10.537891
20
-324.922674
30
0.000002
70
32
0
VERTEX
5
200
330
1FD
100
AcDbEntity
8
Eagleview - 2D Roof Facets
6
Continuous
100
AcDbVertex
100
AcDb3dPolylineVertex
10
10.564167
20
-324.520168
30
0.000001
70
32
0
SEQEND
5
1FE
330
1FD
100
AcDbEntity
1001
EVT
1002
{
1000
LineDesc
1000
P68-RAKE L55
1002
}
0
POLYLINE
5
201
330
1C
100
AcDbEntity
8
Eagleview - 2D Roof Facets
6
Continuous
420
13994280
100
AcDb3dPolyline
10
0.0
20
0.0
30
0.000000
70
9
0
VERTEX
5
203
330
201
100
AcDbEntity
8
Eagleview - 2D Roof Facets
6
Continuous
100
AcDbVertex
100
AcDb3dPolylineVertex
10
10.564167
20
-324.520168
30
0.000001
70
32
0
VERTEX
5
204
330
201
100
AcDbEntity
8
Eagleview - 2D Roof Facets
6
Continuous
100
AcDbVertex
100
AcDb3dPolylineVertex
10
8.640877
20
-324.520167
30
-0.000000
70
32
0
SEQEND
5
202
330
201
100
AcDbEntity
1001
EVT
1002
{
1000
LineDesc
1000
P69-FLASHING L50
1002
}
0
TEXT
5
205
330
1C
100
AcDbEntity
8
Eagleview - 2D Roof Facets
6
Continuous
100
AcDbText
10
0.000000
20
-327.422674
30
0.000000
40
1.000000
1
Facet: N
100
AcDbText
0
TEXT
5
206
330
1C
100
AcDbEntity
8
Eagleview - 2D Roof Facets
6
Continuous
100
AcDbText
10
0.000000
20
-328.922674
30
0.000000
40
1.000000
1
Pitch: 27
100
AcDbText
0
TEXT
5
207
330
1C
100
AcDbEntity
8
Eagleview - 2D Roof Facets
6
Continuous
100
AcDbText
10
0.000000
20
-330.422674
30
0.000000
40
1.000000
1
Orientation: 301
100
AcDbText
0
TEXT
5
208
330
1C
100
AcDbEntity
8
defpoints
6
Continuous
100
AcDbText
10
90.259060
20
117.416307
30
5.608053
40
1.000000
1
K
100
AcDbText
0
POLYLINE
5
209
330
1C
100
AcDbEntity
8
Eagleview - 2D Roof Facets
6
Continuous
420
0
100
AcDb3dPolyline
10
0.0
20
0.0
30
0.000000
70
9
0
VERTEX
5
20B
330
209
100
AcDbEntity
8
Eagleview - 2D Roof Facets
6
Continuous
100
AcDbVertex
100
AcDb3dPolylineVertex
10
17.732385
20
-349.399957
30
0.000001
70
32
0
VERTEX
5
20C
330
209
100
AcDbEntity
8
Eagleview - 2D Roof Facets
6
Continuous
100
AcDbVertex
100
AcDb3dPolylineVertex
10
8.923950
20
-349.399957
30
0.000000
70
32
0
SEQEND
5
20A
330
209
100
AcDbEntity
1001
EVT
1002
{
1000
LineDesc
1000
P70-EAVE L56
1002
}
0
POLYLINE
5
20D
330
1C
100
AcDbEntity
8
Eagleview - 2D Roof Facets
6
Continuous
420
255
100
AcDb3dPolyline
10
0.0
20
0.0
30
0.000000
70
9
0
VERTEX
5
20F
330
20D
100
AcDbEntity
8
Eagleview - 2D Roof Facets
6
Continuous
100
AcDbVertex
100
AcDb3dPolylineVertex
10
8.923950
20
-349.399957
30
0.000000
70
32
0
VERTEX
5
210
330
20D
100
AcDbEntity
8
Eagleview - 2D Roof Facets
6
Continuous
100
AcDbVertex
100
AcDb3dPolylineVertex
10
0.000000
20
-339.422674
30
-0.000001
70
32
0
SEQEND
5
20E
330
20D
100
AcDbEntity
1001
EVT
1002
{
1000
LineDesc
1000
P71-VALLEY L39
1002
}
0
POLYLINE
5
211
330
1C
100
AcDbEntity
8
Eagleview - 2D Roof Facets
6
Continuous
420
16711680
100
AcDb3dPolyline
10
0.0
20
0.0
30
0.000000
70
9
0
VERTEX
5
213
330
211
100
AcDbEntity
8
Eagleview - 2D Roof Facets
6
Continuous
100
AcDbVertex
100
AcDb3dPolylineVertex
10
0.000000
20
-339.422674
30
-0.000001
70
32
0
VERTEX
5
214
330
211
100
AcDbEntity
8
Eagleview - 2D Roof Facets
6
Continuous
100
AcDbVertex
100
AcDb3dPolylineVertex
10
17.732389
20
-339.422677
30
0.000000
70
32
0
SEQEND
5
212
330
211
100
AcDbEntity
1001
EVT
1002
{
1000
LineDesc
1000
P72-RIDGE L49
1002
}
0
POLYLINE
5
215
330
1C
100
AcDbEntity
8
Eagleview - 2D Roof Facets
6
Continuous
420
65280
100
AcDb3dPolyline
10
0.0
20
0.0
30
0.000000
70
9
0
VERTEX
5
217
330
215
100
AcDbEntity
8
Eagleview - 2D Roof Facets
6
Continuous
100
AcDbVertex
100
AcDb3dPolylineVertex
10
17.732389
20
-339.422677
30
0.000000
70
32
0
VERTEX
5
218
330
215
100
AcDbEntity
8
Eagleview - 2D Roof Facets
6
Continuous
100
AcDbVertex
100
AcDb3dPolylineVertex
10
17.732385
20
-349.399957
30
0.000001
70
32
0
SEQEND
5
216
330
215
100
AcDbEntity
1001
EVT
1002
{
1000
LineDesc
1000
P73-RAKE L57
1002
}
0
TEXT
5
219
330
1C
100
AcDbEntity
8
Eagleview - 2D Roof Facets
6
Continuous
100
AcDbText
10
0.000000
20
-351.899957
30
0.000000
40
1.000000
1
Facet: K
100
AcDbText
0
TEXT
5
21A
330
1C
100
AcDbEntity
8
Eagleview - 2D Roof Facets
6
Continuous
100
AcDbText
10
0.000000
20
-353.399957
30
0.000000
40
1.000000
1
Pitch: 27
100
AcDbText
0
TEXT
5
21B
330
1C
100
AcDbEntity
8
Eagleview - 2D Roof Facets
6
Continuous
100
AcDbText
10
0.000000
20
-354.899957
30
0.000000
40
1.000000
1
Orientation: 121
100
AcDbText
0
TEXT
5
21C
330
1C
100
AcDbEntity
8
defpoints
6
Continuous
100
AcDbText
10
89.603215
20
127.556039
30
2.650065
40
1.000000
1
E
100
AcDbText
0
POLYLINE
5
21D
330
1C
100
AcDbEntity
8
Eagleview - 2D Roof Facets
6
Continuous
420
0
100
AcDb3dPolyline
10
0.0
20
0.0
30
0.000000
70
9
0
VERTEX
5
21F
330
21D
100
AcDbEntity
8
Eagleview - 2D Roof Facets
6
Continuous
100
AcDbVertex
100
AcDb3dPolylineVertex
10
6.311905
20
-372.081661
30
-0.000001
70
32
0
VERTEX
5
220
330
21D
100
AcDbEntity
8
Eagleview - 2D Roof Facets
6
Continuous
100
AcDbVertex
100
AcDb3dPolylineVertex
10
0.000003
20
-372.081660
30
-0.000001
70
32
0
SEQEND
5
21E
330
21D
100
AcDbEntity
1001
EVT
1002
{
1000
LineDesc
1000
P74-EAVE L61
1002
}
0
POLYLINE
5
221
330
1C
100
AcDbEntity
8
Eagleview - 2D Roof Facets
6
Continuous
420
13994280
100
AcDb3dPolyline
10
0.0
20
0.0
30
0.000000
70
9
0
VERTEX
5
223
330
221
100
AcDbEntity
8
Eagleview - 2D Roof Facets
6
Continuous
100
AcDbVertex
100
AcDb3dPolylineVertex
10
0.000003
20
-372.081660
30
-0.000001
70
32
0
VERTEX
5
224
330
221
100
AcDbEntity
8
Eagleview - 2D Roof Facets
6
Continuous
100
AcDbVertex
100
AcDb3dPolylineVertex
10
0.000000
20
-366.909491
30
0.000001
70
32
0
SEQEND
5
222
330
221
100
AcDbEntity
1001
EVT
1002
{
1000
LineDesc
1000
P75-STEPFLASH L60
1002
}
0
POLYLINE
5
225
330
1C
100
AcDbEntity
8
Eagleview - 2D Roof Facets
6
Continuous
420
13994280
100
AcDb3dPolyline
10
0.0
20
0.0
30
0.000000
70
9
0
VERTEX
5
227
330
225
100
AcDbEntity
8
Eagleview - 2D Roof Facets
6
Continuous
100
AcDbVertex
100
AcDb3dPolylineVertex
10
0.000000
20
-366.909491
30
0.000001
70
32
0
VERTEX
5
228
330
225
100
AcDbEntity
8
Eagleview - 2D Roof Facets
6
Continuous
100
AcDbVertex
100
AcDb3dPolylineVertex
10
2.005163
20
-363.899957
30
-0.000000
70
32
0
SEQEND
5
226
330
225
100
AcDbEntity
1001
EVT
1002
{
1000
LineDesc
1000
P76-STEPFLASH L58
1002
}
0
POLYLINE
5
229
330
1C
100
AcDbEntity
8
Eagleview - 2D Roof Facets
6
Continuous
420
16711680
100
AcDb3dPolyline
10
0.0
20
0.0
30
0.000000
70
9
0
VERTEX
5
22B
330
229
100
AcDbEntity
8
Eagleview - 2D Roof Facets
6
Continuous
100
AcDbVertex
100
AcDb3dPolylineVertex
10
2.005163
20
-363.899957
30
-0.000000
70
32
0
VERTEX
5
22C
330
229
100
AcDbEntity
8
Eagleview - 2D Roof Facets
6
Continuous
100
AcDbVertex
100
AcDb3dPolylineVertex
10
6.311901
20
-363.899958
30
0.000000
70
32
0
SEQEND
5
22A
330
229
100
AcDbEntity
1001
EVT
1002
{
1000
LineDesc
1000
P77-RIDGE L52
1002
}
0
POLYLINE
5
22D
330
1C
100
AcDbEntity
8
Eagleview - 2D Roof Facets
6
Continuous
420
65280
100
AcDb3dPolyline
10
0.0
20
0.0
30
0.000000
70
9
0
VERTEX
5
22F
330
22D
100
AcDbEntity
8
Eagleview - 2D Roof Facets
6
Continuous
100
AcDbVertex
100
AcDb3dPolylineVertex
10
6.311901
20
-363.899958
30
0.000000
70
32
0
VERTEX
5
230
330
22D
100
AcDbEntity
8
Eagleview - 2D Roof Facets
6
Continuous
100
AcDbVertex
100
AcDb3dPolylineVertex
10
6.311905
20
-372.081661
30
-0.000001
70
32
0
SEQEND
5
22E
330
22D
100
AcDbEntity
1001
EVT
1002
{
1000
LineDesc
1000
P78-RAKE L59
1002
}
0
TEXT
5
231
330
1C
100
AcDbEntity
8
Eagleview - 2D Roof Facets
6
Continuous
100
AcDbText
10
0.000000
20
-374.581661
30
0.000000
40
1.000000
1
Facet: E
100
AcDbText
0
TEXT
5
232
330
1C
100
AcDbEntity
8
Eagleview - 2D Roof Facets
6
Continuous
100
AcDbText
10
0.000000
20
-376.081661
30
0.000000
40
1.000000
1
Pitch: 27
100
AcDbText
0
TEXT
5
233
330
1C
100
AcDbEntity
8
Eagleview - 2D Roof Facets
6
Continuous
100
AcDbText
10
0.000000
20
-377.581661
30
0.000000
40
1.000000
1
Orientation: 122
100
AcDbText
0
TEXT
5
234
330
1C
100
AcDbEntity
8
defpoints
6
Continuous
100
AcDbText
10
108.559014
20
109.529384
30
3.283260
40
1.000000
1
M
100
AcDbText
0
POLYLINE
5
235
330
1C
100
AcDbEntity
8
Eagleview - 2D Roof Facets
6
Continuous
420
255
100
AcDb3dPolyline
10
0.0
20
0.0
30
0.000000
70
9
0
VERTEX
5
237
330
235
100
AcDbEntity
8
Eagleview - 2D Roof Facets
6
Continuous
100
AcDbVertex
100
AcDb3dPolylineVertex
10
10.099835
20
-396.053449
30
-0.000001
70
32
0
VERTEX
5
238
330
235
100
AcDbEntity
8
Eagleview - 2D Roof Facets
6
Continuous
100
AcDbVertex
100
AcDb3dPolylineVertex
10
18.571651
20
-386.581661
30
-0.000001
70
32
0
SEQEND
5
236
330
235
100
AcDbEntity
1001
EVT
1002
{
1000
LineDesc
1000
P79-VALLEY L35
1002
}
0
POLYLINE
5
239
330
1C
100
AcDbEntity
8
Eagleview - 2D Roof Facets
6
Continuous
420
16711680
100
AcDb3dPolyline
10
0.0
20
0.0
30
0.000000
70
9
0
VERTEX
5
23B
330
239
100
AcDbEntity
8
Eagleview - 2D Roof Facets
6
Continuous
100
AcDbVertex
100
AcDb3dPolylineVertex
10
18.571651
20
-386.581661
30
-0.000001
70
32
0
VERTEX
5
23C
330
239
100
AcDbEntity
8
Eagleview - 2D Roof Facets
6
Continuous
100
AcDbVertex
100
AcDb3dPolylineVertex
10
0.000000
20
-386.581668
30
0.000003
70
32
0
SEQEND
5
23A
330
239
100
AcDbEntity
1001
EVT
1002
{
1000
LineDesc
1000
P80-RIDGE L62
1002
}
0
POLYLINE
5
23D
330
1C
100
AcDbEntity
8
Eagleview - 2D Roof Facets
6
Continuous
420
65280
100
AcDb3dPolyline
10
0.0
20
0.0
30
0.000000
70
9
0
VERTEX
5
23F
330
23D
100
AcDbEntity
8
Eagleview - 2D Roof Facets
6
Continuous
100
AcDbVertex
100
AcDb3dPolylineVertex
10
0.000000
20
-386.581668
30
0.000003
70
32
0
VERTEX
5
240
330
23D
100
AcDbEntity
8
Eagleview - 2D Roof Facets
6
Continuous
100
AcDbVertex
100
AcDb3dPolylineVertex
10
0.000008
20
-399.202235
30
0.000001
70
32
0
SEQEND
5
23E
330
23D
100
AcDbEntity
1001
EVT
1002
{
1000
LineDesc
1000
P81-RAKE L64
1002
}
0
POLYLINE
5
241
330
1C
100
AcDbEntity
8
Eagleview - 2D Roof Facets
6
Continuous
420
0
100
AcDb3dPolyline
10
0.0
20
0.0
30
0.000000
70
9
0
VERTEX
5
243
330
241
100
AcDbEntity
8
Eagleview - 2D Roof Facets
6
Continuous
100
AcDbVertex
100
AcDb3dPolylineVertex
10
0.000008
20
-399.202235
30
0.000001
70
32
0
VERTEX
5
244
330
241
100
AcDbEntity
8
Eagleview - 2D Roof Facets
6
Continuous
100
AcDbVertex
100
AcDb3dPolylineVertex
10
11.702091
20
-399.202230
30
-0.000001
70
32
0
SEQEND
5
242
330
241
100
AcDbEntity
1001
EVT
1002
{
1000
LineDesc
1000
P82-EAVE L65
1002
}
0
POLYLINE
5
245
330
1C
100
AcDbEntity
8
Eagleview - 2D Roof Facets
6
Continuous
420
13994280
100
AcDb3dPolyline
10
0.0
20
0.0
30
0.000000
70
9
0
VERTEX
5
247
330
245
100
AcDbEntity
8
Eagleview - 2D Roof Facets
6
Continuous
100
AcDbVertex
100
AcDb3dPolylineVertex
10
11.702091
20
-399.202230
30
-0.000001
70
32
0
VERTEX
5
248
330
245
100
AcDbEntity
8
Eagleview - 2D Roof Facets
6
Continuous
100
AcDbVertex
100
AcDb3dPolylineVertex
10
11.754188
20
-396.053447
30
-0.000002
70
32
0
SEQEND
5
246
330
245
100
AcDbEntity
1001
EVT
1002
{
1000
LineDesc
1000
P83-STEPFLASH L66
1002
}
0
POLYLINE
5
249
330
1C
100
AcDbEntity
8
Eagleview - 2D Roof Facets
6
Continuous
420
13994280
100
AcDb3dPolyline
10
0.0
20
0.0
30
0.000000
70
9
0
VERTEX
5
24B
330
249
100
AcDbEntity
8
Eagleview - 2D Roof Facets
6
Continuous
100
AcDbVertex
100
AcDb3dPolylineVertex
10
11.754188
20
-396.053447
30
-0.000002
70
32
0
VERTEX
5
24C
330
249
100
AcDbEntity
8
Eagleview - 2D Roof Facets
6
Continuous
100
AcDbVertex
100
AcDb3dPolylineVertex
10
10.099835
20
-396.053449
30
-0.000001
70
32
0
SEQEND
5
24A
330
249
100
AcDbEntity
1001
EVT
1002
{
1000
LineDesc
1000
P84-FLASHING L63
1002
}
0
TEXT
5
24D
330
1C
100
AcDbEntity
8
Eagleview - 2D Roof Facets
6
Continuous
100
AcDbText
10
0.000000
20
-401.702235
30
0.000000
40
1.000000
1
Facet: M
100
AcDbText
0
TEXT
5
24E
330
1C
100
AcDbEntity
8
Eagleview - 2D Roof Facets
6
Continuous
100
AcDbText
10
0.000000
20
-403.202235
30
0.000000
40
1.000000
1
Pitch: 27
100
AcDbText
0
TEXT
5
24F
330
1C
100
AcDbEntity
8
Eagleview - 2D Roof Facets
6
Continuous
100
AcDbText
10
0.000000
20
-404.702235
30
0.000000
40
1.000000
1
Orientation: 302
100
AcDbText
0
TEXT
5
250
330
1C
100
AcDbEntity
8
defpoints
6
Continuous
100
AcDbText
10
116.782349
20
106.580356
30
3.052652
40
1.000000
1
L
100
AcDbText
0
POLYLINE
5
251
330
1C
100
AcDbEntity
8
Eagleview - 2D Roof Facets
6
Continuous
420
0
100
AcDb3dPolyline
10
0.0
20
0.0
30
0.000000
70
9
0
VERTEX
5
253
330
251
100
AcDbEntity
8
Eagleview - 2D Roof Facets
6
Continuous
100
AcDbVertex
100
AcDb3dPolylineVertex
10
18.571658
20
-427.354109
30
-0.000001
70
32
0
VERTEX
5
254
330
251
100
AcDbEntity
8
Eagleview - 2D Roof Facets
6
Continuous
100
AcDbVertex
100
AcDb3dPolylineVertex
10
12.210615
20
-427.354109
30
-0.000001
70
32
0
SEQEND
5
252
330
251
100
AcDbEntity
1001
EVT
1002
{
1000
LineDesc
1000
P85-EAVE L67
1002
}
0
POLYLINE
5
255
330
1C
100
AcDbEntity
8
Eagleview - 2D Roof Facets
6
Continuous
420
255
100
AcDb3dPolyline
10
0.0
20
0.0
30
0.000000
70
9
0
VERTEX
5
257
330
255
100
AcDbEntity
8
Eagleview - 2D Roof Facets
6
Continuous
100
AcDbVertex
100
AcDb3dPolylineVertex
10
12.210615
20
-427.354109
30
-0.000001
70
32
0
VERTEX
5
258
330
255
100
AcDbEntity
8
Eagleview - 2D Roof Facets
6
Continuous
100
AcDbVertex
100
AcDb3dPolylineVertex
10
0.000000
20
-413.702241
30
0.000003
70
32
0
SEQEND
5
256
330
255
100
AcDbEntity
1001
EVT
1002
{
1000
LineDesc
1000
P86-VALLEY L34
1002
}
0
POLYLINE
5
259
330
1C
100
AcDbEntity
8
Eagleview - 2D Roof Facets
6
Continuous
420
16711680
100
AcDb3dPolyline
10
0.0
20
0.0
30
0.000000
70
9
0
VERTEX
5
25B
330
259
100
AcDbEntity
8
Eagleview - 2D Roof Facets
6
Continuous
100
AcDbVertex
100
AcDb3dPolylineVertex
10
0.000000
20
-413.702241
30
0.000003
70
32
0
VERTEX
5
25C
330
259
100
AcDbEntity
8
Eagleview - 2D Roof Facets
6
Continuous
100
AcDbVertex
100
AcDb3dPolylineVertex
10
18.571651
20
-413.702235
30
-0.000000
70
32
0
SEQEND
5
25A
330
259
100
AcDbEntity
1001
EVT
1002
{
1000
LineDesc
1000
P87-RIDGE L62
1002
}
0
POLYLINE
5
25D
330
1C
100
AcDbEntity
8
Eagleview - 2D Roof Facets
6
Continuous
420
65280
100
AcDb3dPolyline
10
0.0
20
0.0
30
0.000000
70
9
0
VERTEX
5
25F
330
25D
100
AcDbEntity
8
Eagleview - 2D Roof Facets
6
Continuous
100
AcDbVertex
100
AcDb3dPolylineVertex
10
18.571651
20
-413.702235
30
-0.000000
70
32
0
VERTEX
5
260
330
25D
100
AcDbEntity
8
Eagleview - 2D Roof Facets
6
Continuous
100
AcDbVertex
100
AcDb3dPolylineVertex
10
18.571658
20
-427.354109
30
-0.000001
70
32
0
SEQEND
5
25E
330
25D
100
AcDbEntity
1001
EVT
1002
{
1000
LineDesc
1000
P88-RAKE L68
1002
}
0
TEXT
5
261
330
1C
100
AcDbEntity
8
Eagleview - 2D Roof Facets
6
Continuous
100
AcDbText
10
0.000000
20
-429.854109
30
0.000000
40
1.000000
1
Facet: L
100
AcDbText
0
TEXT
5
262
330
1C
100
AcDbEntity
8
Eagleview - 2D Roof Facets
6
Continuous
100
AcDbText
10
0.000000
20
-431.354109
30
0.000000
40
1.000000
1
Pitch: 27
100
AcDbText
0
TEXT
5
263
330
1C
100
AcDbEntity
8
Eagleview - 2D Roof Facets
6
Continuous
100
AcDbText
10
0.000000
20
-432.854109
30
0.000000
40
1.000000
1
Orientation: 122
100
AcDbText
0
TEXT
5
264
330
1C
100
AcDbEntity
8
defpoints
6
Continuous
100
AcDbText
10
115.851344
20
87.823339
30
2.703626
40
1.000000
1
G
100
AcDbText
0
POLYLINE
5
265
330
1C
100
AcDbEntity
8
Eagleview - 2D Roof Facets
6
Continuous
420
16711680
100
AcDb3dPolyline
10
0.0
20
0.0
30
0.000000
70
9
0
VERTEX
5
267
330
265
100
AcDbEntity
8
Eagleview - 2D Roof Facets
6
Continuous
100
AcDbVertex
100
AcDb3dPolylineVertex
10
7.035257
20
-441.854109
30
0.000001
70
32
0
VERTEX
5
268
330
265
100
AcDbEntity
8
Eagleview - 2D Roof Facets
6
Continuous
100
AcDbVertex
100
AcDb3dPolylineVertex
10
2.076427
20
-441.854109
30
0.000001
70
32
0
SEQEND
5
266
330
265
100
AcDbEntity
1001
EVT
1002
{
1000
LineDesc
1000
P89-RIDGE L31
1002
}
0
POLYLINE
5
269
330
1C
100
AcDbEntity
8
Eagleview - 2D Roof Facets
6
Continuous
420
13994280
100
AcDb3dPolyline
10
0.0
20
0.0
30
0.000000
70
9
0
VERTEX
5
26B
330
269
100
AcDbEntity
8
Eagleview - 2D Roof Facets
6
Continuous
100
AcDbVertex
100
AcDb3dPolylineVertex
10
2.076427
20
-441.854109
30
0.000001
70
32
0
VERTEX
5
26C
330
269
100
AcDbEntity
8
Eagleview - 2D Roof Facets
6
Continuous
100
AcDbVertex
100
AcDb3dPolylineVertex
10
0.000000
20
-445.182992
30
0.000002
70
32
0
SEQEND
5
26A
330
269
100
AcDbEntity
1001
EVT
1002
{
1000
LineDesc
1000
P90-STEPFLASH L69
1002
}
0
POLYLINE
5
26D
330
1C
100
AcDbEntity
8
Eagleview - 2D Roof Facets
6
Continuous
420
13994280
100
AcDb3dPolyline
10
0.0
20
0.0
30
0.000000
70
9
0
VERTEX
5
26F
330
26D
100
AcDbEntity
8
Eagleview - 2D Roof Facets
6
Continuous
100
AcDbVertex
100
AcDb3dPolylineVertex
10
0.000000
20
-445.182992
30
0.000002
70
32
0
VERTEX
5
270
330
26D
100
AcDbEntity
8
Eagleview - 2D Roof Facets
6
Continuous
100
AcDbVertex
100
AcDb3dPolylineVertex
10
0.000005
20
-453.945097
30
-0.000001
70
32
0
SEQEND
5
26E
330
26D
100
AcDbEntity
1001
EVT
1002
{
1000
LineDesc
1000
P91-STEPFLASH L71
1002
}
0
POLYLINE
5
271
330
1C
100
AcDbEntity
8
Eagleview - 2D Roof Facets
6
Continuous
420
0
100
AcDb3dPolyline
10
0.0
20
0.0
30
0.000000
70
9
0
VERTEX
5
273
330
271
100
AcDbEntity
8
Eagleview - 2D Roof Facets
6
Continuous
100
AcDbVertex
100
AcDb3dPolylineVertex
10
0.000005
20
-453.945097
30
-0.000001
70
32
0
VERTEX
5
274
330
271
100
AcDbEntity
8
Eagleview - 2D Roof Facets
6
Continuous
100
AcDbVertex
100
AcDb3dPolylineVertex
10
7.035270
20
-453.945091
30
-0.000004
70
32
0
SEQEND
5
272
330
271
100
AcDbEntity
1001
EVT
1002
{
1000
LineDesc
1000
P92-EAVE L72
1002
}
0
POLYLINE
5
275
330
1C
100
AcDbEntity
8
Eagleview - 2D Roof Facets
6
Continuous
420
65280
100
AcDb3dPolyline
10
0.0
20
0.0
30
0.000000
70
9
0
VERTEX
5
277
330
275
100
AcDbEntity
8
Eagleview - 2D Roof Facets
6
Continuous
100
AcDbVertex
100
AcDb3dPolylineVertex
10
7.035270
20
-453.945091
30
-0.000004
70
32
0
VERTEX
5
278
330
275
100
AcDbEntity
8
Eagleview - 2D Roof Facets
6
Continuous
100
AcDbVertex
100
AcDb3dPolylineVertex
10
7.035257
20
-441.854109
30
0.000001
70
32
0
SEQEND
5
276
330
275
100
AcDbEntity
1001
EVT
1002
{
1000
LineDesc
1000
P93-RAKE L70
1002
}
0
TEXT
5
279
330
1C
100
AcDbEntity
8
Eagleview - 2D Roof Facets
6
Continuous
100
AcDbText
10
0.000000
20
-456.445097
30
0.000000
40
1.000000
1
Facet: G
100
AcDbText
0
TEXT
5
27A
330
1C
100
AcDbEntity
8
Eagleview - 2D Roof Facets
6
Continuous
100
AcDbText
10
0.000000
20
-457.945097
30
0.000000
40
1.000000
1
Pitch: 27
100
AcDbText
0
TEXT
5
27B
330
1C
100
AcDbEntity
8
Eagleview - 2D Roof Facets
6
Continuous
100
AcDbText
10
0.000000
20
-459.445097
30
0.000000
40
1.000000
1
Orientation: 212
100
AcDbText
0
TEXT
5
27C
330
1C
100
AcDbEntity
8
defpoints
6
Continuous
100
AcDbText
10
93.805764
20
104.904389
30
10.646878
40
1.000000
1
I
100
AcDbText
0
POLYLINE
5
27D
330
1C
100
AcDbEntity
8
Eagleview - 2D Roof Facets
6
Continuous
420
255
100
AcDb3dPolyline
10
0.0
20
0.0
30
0.000000
70
9
0
VERTEX
5
27F
330
27D
100
AcDbEntity
8
Eagleview - 2D Roof Facets
6
Continuous
100
AcDbVertex
100
AcDb3dPolylineVertex
10
13.850797
20
-474.563989
30
-0.000000
70
32
0
VERTEX
5
280
330
27D
100
AcDbEntity
8
Eagleview - 2D Roof Facets
6
Continuous
100
AcDbVertex
100
AcDb3dPolylineVertex
10
19.323702
20
-468.445097
30
-0.000000
70
32
0
SEQEND
5
27E
330
27D
100
AcDbEntity
1001
EVT
1002
{
1000
LineDesc
1000
P94-VALLEY L45
1002
}
0
POLYLINE
5
281
330
1C
100
AcDbEntity
8
Eagleview - 2D Roof Facets
6
Continuous
420
16711680
100
AcDb3dPolyline
10
0.0
20
0.0
30
0.000000
70
9
0
VERTEX
5
283
330
281
100
AcDbEntity
8
Eagleview - 2D Roof Facets
6
Continuous
100
AcDbVertex
100
AcDb3dPolylineVertex
10
19.323702
20
-468.445097
30
-0.000000
70
32
0
VERTEX
5
284
330
281
100
AcDbEntity
8
Eagleview - 2D Roof Facets
6
Continuous
100
AcDbVertex
100
AcDb3dPolylineVertex
10
0.000000
20
-468.445098
30
0.000000
70
32
0
SEQEND
5
282
330
281
100
AcDbEntity
1001
EVT
1002
{
1000
LineDesc
1000
P95-RIDGE L74
1002
}
0
POLYLINE
5
285
330
1C
100
AcDbEntity
8
Eagleview - 2D Roof Facets
6
Continuous
420
65280
100
AcDb3dPolyline
10
0.0
20
0.0
30
0.000000
70
9
0
VERTEX
5
287
330
285
100
AcDbEntity
8
Eagleview - 2D Roof Facets
6
Continuous
100
AcDbVertex
100
AcDb3dPolylineVertex
10
0.000000
20
-468.445098
30
0.000000
70
32
0
VERTEX
5
288
330
285
100
AcDbEntity
8
Eagleview - 2D Roof Facets
6
Continuous
100
AcDbVertex
100
AcDb3dPolylineVertex
10
0.048936
20
-474.563990
30
0.000000
70
32
0
SEQEND
5
286
330
285
100
AcDbEntity
1001
EVT
1002
{
1000
LineDesc
1000
P96-RAKE L75
1002
}
0
POLYLINE
5
289
330
1C
100
AcDbEntity
8
Eagleview - 2D Roof Facets
6
Continuous
420
0
100
AcDb3dPolyline
10
0.0
20
0.0
30
0.000000
70
9
0
VERTEX
5
28B
330
289
100
AcDbEntity
8
Eagleview - 2D Roof Facets
6
Continuous
100
AcDbVertex
100
AcDb3dPolylineVertex
10
0.048936
20
-474.563990
30
0.000000
70
32
0
VERTEX
5
28C
330
289
100
AcDbEntity
8
Eagleview - 2D Roof Facets
6
Continuous
100
AcDbVertex
100
AcDb3dPolylineVertex
10
13.850797
20
-474.563989
30
-0.000000
70
32
0
SEQEND
5
28A
330
289
100
AcDbEntity
1001
EVT
1002
{
1000
LineDesc
1000
P97-EAVE L73
1002
}
0
TEXT
5
28D
330
1C
100
AcDbEntity
8
Eagleview - 2D Roof Facets
6
Continuous
100
AcDbText
10
0.000000
20
-477.063990
30
0.000000
40
1.000000
1
Facet: I
100
AcDbText
0
TEXT
5
28E
330
1C
100
AcDbEntity
8
Eagleview - 2D Roof Facets
6
Continuous
100
AcDbText
10
0.000000
20
-478.563990
30
0.000000
40
1.000000
1
Pitch: 27
100
AcDbText
0
TEXT
5
28F
330
1C
100
AcDbEntity
8
Eagleview - 2D Roof Facets
6
Continuous
100
AcDbText
10
0.000000
20
-480.063990
30
0.000000
40
1.000000
1
Orientation: 302
100
AcDbText
0
TEXT
5
290
330
1C
100
AcDbEntity
8
defpoints
6
Continuous
100
AcDbText
10
96.931050
20
103.495459
30
10.700377
40
1.000000
1
H
100
AcDbText
0
POLYLINE
5
291
330
1C
100
AcDbEntity
8
Eagleview - 2D Roof Facets
6
Continuous
420
0
100
AcDb3dPolyline
10
0.0
20
0.0
30
0.000000
70
9
0
VERTEX
5
293
330
291
100
AcDbEntity
8
Eagleview - 2D Roof Facets
6
Continuous
100
AcDbVertex
100
AcDb3dPolylineVertex
10
19.246738
20
-494.943628
30
-0.000000
70
32
0
VERTEX
5
294
330
291
100
AcDbEntity
8
Eagleview - 2D Roof Facets
6
Continuous
100
AcDbVertex
100
AcDb3dPolylineVertex
10
5.258908
20
-494.943627
30
-0.000000
70
32
0
SEQEND
5
292
330
291
100
AcDbEntity
1001
EVT
1002
{
1000
LineDesc
1000
P98-EAVE L76
1002
}
0
POLYLINE
5
295
330
1C
100
AcDbEntity
8
Eagleview - 2D Roof Facets
6
Continuous
420
255
100
AcDb3dPolyline
10
0.0
20
0.0
30
0.000000
70
9
0
VERTEX
5
297
330
295
100
AcDbEntity
8
Eagleview - 2D Roof Facets
6
Continuous
100
AcDbVertex
100
AcDb3dPolylineVertex
10
5.258908
20
-494.943627
30
-0.000000
70
32
0
VERTEX
5
298
330
295
100
AcDbEntity
8
Eagleview - 2D Roof Facets
6
Continuous
100
AcDbVertex
100
AcDb3dPolylineVertex
10
0.000000
20
-489.063990
30
-0.000000
70
32
0
SEQEND
5
296
330
295
100
AcDbEntity
1001
EVT
1002
{
1000
LineDesc
1000
P99-VALLEY L46
1002
}
0
POLYLINE
5
299
330
1C
100
AcDbEntity
8
Eagleview - 2D Roof Facets
6
Continuous
420
16711680
100
AcDb3dPolyline
10
0.0
20
0.0
30
0.000000
70
9
0
VERTEX
5
29B
330
299
100
AcDbEntity
8
Eagleview - 2D Roof Facets
6
Continuous
100
AcDbVertex
100
AcDb3dPolylineVertex
10
0.000000
20
-489.063990
30
-0.000000
70
32
0
VERTEX
5
29C
330
299
100
AcDbEntity
8
Eagleview - 2D Roof Facets
6
Continuous
100
AcDbVertex
100
AcDb3dPolylineVertex
10
19.323702
20
-489.063992
30
0.000001
70
32
0
SEQEND
5
29A
330
299
100
AcDbEntity
1001
EVT
1002
{
1000
LineDesc
1000
P100-RIDGE L74
1002
}
0
POLYLINE
5
29D
330
1C
100
AcDbEntity
8
Eagleview - 2D Roof Facets
6
Continuous
420
65280
100
AcDb3dPolyline
10
0.0
20
0.0
30
0.000000
70
9
0
VERTEX
5
29F
330
29D
100
AcDbEntity
8
Eagleview - 2D Roof Facets
6
Continuous
100
AcDbVertex
100
AcDb3dPolylineVertex
10
19.323702
20
-489.063992
30
0.000001
70
32
0
VERTEX
5
2A0
330
29D
100
AcDbEntity
8
Eagleview - 2D Roof Facets
6
Continuous
100
AcDbVertex
100
AcDb3dPolylineVertex
10
19.246738
20
-494.943628
30
-0.000000
70
32
0
SEQEND
5
29E
330
29D
100
AcDbEntity
1001
EVT
1002
{
1000
LineDesc
1000
P101-RAKE L77
1002
}
0
TEXT
5
2A1
330
1C
100
AcDbEntity
8
Eagleview - 2D Roof Facets
6
Continuous
100
AcDbText
10
0.000000
20
-497.443628
30
0.000000
40
1.000000
1
Facet: H
100
AcDbText
0
TEXT
5
2A2
330
1C
100
AcDbEntity
8
Eagleview - 2D Roof Facets
6
Continuous
100
AcDbText
10
0.000000
20
-498.943628
30
0.000000
40
1.000000
1
Pitch: 27
100
AcDbText
0
TEXT
5
2A3
330
1C
100
AcDbEntity
8
Eagleview - 2D Roof Facets
6
Continuous
100
AcDbText
10
0.000000
20
-500.443628
30
0.000000
40
1.000000
1
Orientation: 121
100
AcDbText
0
TEXT
5
2A4
330
1C
100
AcDbEntity
8
defpoints
6
Continuous
100
AcDbText
10
72.854817
20
58.372741
30
2.236383
40
1.000000
1
B
100
AcDbText
0
POLYLINE
5
2A5
330
1C
100
AcDbEntity
8
Eagleview - 2D Roof Facets
6
Continuous
420
16711680
100
AcDb3dPolyline
10
0.0
20
0.0
30
0.000000
70
9
0
VERTEX
5
2A7
330
2A5
100
AcDbEntity
8
Eagleview - 2D Roof Facets
6
Continuous
100
AcDbVertex
100
AcDb3dPolylineVertex
10
0.000000
20
-509.443628
30
0.000000
70
32
0
VERTEX
5
2A8
330
2A5
100
AcDbEntity
8
Eagleview - 2D Roof Facets
6
Continuous
100
AcDbVertex
100
AcDb3dPolylineVertex
10
2.170775
20
-509.443628
30
0.000000
70
32
0
SEQEND
5
2A6
330
2A5
100
AcDbEntity
1001
EVT
1002
{
1000
LineDesc
1000
P102-RIDGE L24
1002
}
0
POLYLINE
5
2A9
330
1C
100
AcDbEntity
8
Eagleview - 2D Roof Facets
6
Continuous
420
16711680
100
AcDb3dPolyline
10
0.0
20
0.0
30
0.000000
70
9
0
VERTEX
5
2AB
330
2A9
100
AcDbEntity
8
Eagleview - 2D Roof Facets
6
Continuous
100
AcDbVertex
100
AcDb3dPolylineVertex
10
2.170775
20
-509.443628
30
0.000000
70
32
0
VERTEX
5
2AC
330
2A9
100
AcDbEntity
8
Eagleview - 2D Roof Facets
6
Continuous
100
AcDbVertex
100
AcDb3dPolylineVertex
10
4.133769
20
-511.237709
30
0.000000
70
32
0
SEQEND
5
2AA
330
2A9
100
AcDbEntity
1001
EVT
1002
{
1000
LineDesc
1000
P103-HIP L80
1002
}
0
POLYLINE
5
2AD
330
1C
100
AcDbEntity
8
Eagleview - 2D Roof Facets
6
Continuous
420
16711680
100
AcDb3dPolyline
10
0.0
20
0.0
30
0.000000
70
9
0
VERTEX
5
2AF
330
2AD
100
AcDbEntity
8
Eagleview - 2D Roof Facets
6
Continuous
100
AcDbVertex
100
AcDb3dPolylineVertex
10
4.133769
20
-511.237709
30
0.000000
70
32
0
VERTEX
5
2B0
330
2AD
100
AcDbEntity
8
Eagleview - 2D Roof Facets
6
Continuous
100
AcDbVertex
100
AcDb3dPolylineVertex
10
8.656973
20
-518.049715
30
-0.000001
70
32
0
SEQEND
5
2AE
330
2AD
100
AcDbEntity
1001
EVT
1002
{
1000
LineDesc
1000
P104-HIP L82
1002
}
0
POLYLINE
5
2B1
330
1C
100
AcDbEntity
8
Eagleview - 2D Roof Facets
6
Continuous
420
255
100
AcDb3dPolyline
10
0.0
20
0.0
30
0.000000
70
9
0
VERTEX
5
2B3
330
2B1
100
AcDbEntity
8
Eagleview - 2D Roof Facets
6
Continuous
100
AcDbVertex
100
AcDb3dPolylineVertex
10
8.656973
20
-518.049715
30
-0.000001
70
32
0
VERTEX
5
2B4
330
2B1
100
AcDbEntity
8
Eagleview - 2D Roof Facets
6
Continuous
100
AcDbVertex
100
AcDb3dPolylineVertex
10
0.000000
20
-509.443628
30
0.000000
70
32
0
SEQEND
5
2B2
330
2B1
100
AcDbEntity
1001
EVT
1002
{
1000
LineDesc
1000
P105-VALLEY L23
1002
}
0
TEXT
5
2B5
330
1C
100
AcDbEntity
8
Eagleview - 2D Roof Facets
6
Continuous
100
AcDbText
10
0.000000
20
-520.549715
30
0.000000
40
1.000000
1
Facet: B
100
AcDbText
0
TEXT
5
2B6
330
1C
100
AcDbEntity
8
Eagleview - 2D Roof Facets
6
Continuous
100
AcDbText
10
0.000000
20
-522.049715
30
0.000000
40
1.000000
1
Pitch: 31
100
AcDbText
0
TEXT
5
2B7
330
1C
100
AcDbEntity
8
Eagleview - 2D Roof Facets
6
Continuous
100
AcDbText
10
0.000000
20
-523.549715
30
0.000000
40
1.000000
1
Orientation: 302
100
AcDbText
0
TEXT
5
2B8
330
1C
100
AcDbEntity
8
defpoints
6
Continuous
100
AcDbText
10
78.514374
20
54.557032
30
2.236383
40
1.000000
1
A
100
AcDbText
0
POLYLINE
5
2B9
330
1C
100
AcDbEntity
8
Eagleview - 2D Roof Facets
6
Continuous
420
16711680
100
AcDb3dPolyline
10
0.0
20
0.0
30
0.000000
70
9
0
VERTEX
5
2BB
330
2B9
100
AcDbEntity
8
Eagleview - 2D Roof Facets
6
Continuous
100
AcDbVertex
100
AcDb3dPolylineVertex
10
8.656965
20
-532.549715
30
-0.000000
70
32
0
VERTEX
5
2BC
330
2B9
100
AcDbEntity
8
Eagleview - 2D Roof Facets
6
Continuous
100
AcDbVertex
100
AcDb3dPolylineVertex
10
6.486190
20
-532.549715
30
-0.000000
70
32
0
SEQEND
5
2BA
330
2B9
100
AcDbEntity
1001
EVT
1002
{
1000
LineDesc
1000
P106-RIDGE L24
1002
}
0
POLYLINE
5
2BD
330
1C
100
AcDbEntity
8
Eagleview - 2D Roof Facets
6
Continuous
420
16711680
100
AcDb3dPolyline
10
0.0
20
0.0
30
0.000000
70
9
0
VERTEX
5
2BF
330
2BD
100
AcDbEntity
8
Eagleview - 2D Roof Facets
6
Continuous
100
AcDbVertex
100
AcDb3dPolylineVertex
10
6.486190
20
-532.549715
30
-0.000000
70
32
0
VERTEX
5
2C0
330
2BD
100
AcDbEntity
8
Eagleview - 2D Roof Facets
6
Continuous
100
AcDbVertex
100
AcDb3dPolylineVertex
10
4.580152
20
-534.274592
30
-0.000001
70
32
0
SEQEND
5
2BE
330
2BD
100
AcDbEntity
1001
EVT
1002
{
1000
LineDesc
1000
P107-HIP L78
1002
}
0
POLYLINE
5
2C1
330
1C
100
AcDbEntity
8
Eagleview - 2D Roof Facets
6
Continuous
420
16711680
100
AcDb3dPolyline
10
0.0
20
0.0
30
0.000000
70
9
0
VERTEX
5
2C3
330
2C1
100
AcDbEntity
8
Eagleview - 2D Roof Facets
6
Continuous
100
AcDbVertex
100
AcDb3dPolylineVertex
10
4.580152
20
-534.274592
30
-0.000001
70
32
0
VERTEX
5
2C4
330
2C1
100
AcDbEntity
8
Eagleview - 2D Roof Facets
6
Continuous
100
AcDbVertex
100
AcDb3dPolylineVertex
10
0.000000
20
-541.071077
30
0.000001
70
32
0
SEQEND
5
2C2
330
2C1
100
AcDbEntity
1001
EVT
1002
{
1000
LineDesc
1000
P108-HIP L83
1002
}
0
POLYLINE
5
2C5
330
1C
100
AcDbEntity
8
Eagleview - 2D Roof Facets
6
Continuous
420
255
100
AcDb3dPolyline
10
0.0
20
0.0
30
0.000000
70
9
0
VERTEX
5
2C7
330
2C5
100
AcDbEntity
8
Eagleview - 2D Roof Facets
6
Continuous
100
AcDbVertex
100
AcDb3dPolylineVertex
10
0.000000
20
-541.071077
30
0.000001
70
32
0
VERTEX
5
2C8
330
2C5
100
AcDbEntity
8
Eagleview - 2D Roof Facets
6
Continuous
100
AcDbVertex
100
AcDb3dPolylineVertex
10
8.656965
20
-532.549715
30
-0.000000
70
32
0
SEQEND
5
2C6
330
2C5
100
AcDbEntity
1001
EVT
1002
{
1000
LineDesc
1000
P109-VALLEY L22
1002
}
0
TEXT
5
2C9
330
1C
100
AcDbEntity
8
Eagleview - 2D Roof Facets
6
Continuous
100
AcDbText
10
0.000000
20
-543.571077
30
0.000000
40
1.000000
1
Facet: A
100
AcDbText
0
TEXT
5
2CA
330
1C
100
AcDbEntity
8
Eagleview - 2D Roof Facets
6
Continuous
100
AcDbText
10
0.000000
20
-545.071077
30
0.000000
40
1.000000
1
Pitch: 32
100
AcDbText
0
TEXT
5
2CB
330
1C
100
AcDbEntity
8
Eagleview - 2D Roof Facets
6
Continuous
100
AcDbText
10
0.000000
20
-546.571077
30
0.000000
40
1.000000
1
Orientation: 122
100
AcDbText
0
TEXT
5
2CC
330
1C
100
AcDbEntity
8
defpoints
6
Continuous
100
AcDbText
10
71.121431
20
55.065458
30
1.719501
40
1.000000
1
C
100
AcDbText
0
POLYLINE
5
2CD
330
1C
100
AcDbEntity
8
Eagleview - 2D Roof Facets
6
Continuous
420
16711680
100
AcDb3dPolyline
10
0.0
20
0.0
30
0.000000
70
9
0
VERTEX
5
2CF
330
2CD
100
AcDbEntity
8
Eagleview - 2D Roof Facets
6
Continuous
100
AcDbVertex
100
AcDb3dPolylineVertex
10
3.899326
20
-563.979340
30
-0.000000
70
32
0
VERTEX
5
2D0
330
2CD
100
AcDbEntity
8
Eagleview - 2D Roof Facets
6
Continuous
100
AcDbVertex
100
AcDb3dPolylineVertex
10
0.209879
20
-555.571077
30
-0.000000
70
32
0
SEQEND
5
2CE
330
2CD
100
AcDbEntity
1001
EVT
1002
{
1000
LineDesc
1000
P110-HIP L81
1002
}
0
POLYLINE
5
2D1
330
1C
100
AcDbEntity
8
Eagleview - 2D Roof Facets
6
Continuous
420
16711680
100
AcDb3dPolyline
10
0.0
20
0.0
30
0.000000
70
9
0
VERTEX
5
2D3
330
2D1
100
AcDbEntity
8
Eagleview - 2D Roof Facets
6
Continuous
100
AcDbVertex
100
AcDb3dPolylineVertex
10
0.209879
20
-555.571077
30
-0.000000
70
32
0
VERTEX
5
2D4
330
2D1
100
AcDbEntity
8
Eagleview - 2D Roof Facets
6
Continuous
100
AcDbVertex
100
AcDb3dPolylineVertex
10
0.000000
20
-563.745351
30
0.000000
70
32
0
SEQEND
5
2D2
330
2D1
100
AcDbEntity
1001
EVT
1002
{
1000
LineDesc
1000
P111-HIP L82
1002
}
0
POLYLINE
5
2D5
330
1C
100
AcDbEntity
8
Eagleview - 2D Roof Facets
6
Continuous
420
0
100
AcDb3dPolyline
10
0.0
20
0.0
30
0.000000
70
9
0
VERTEX
5
2D7
330
2D5
100
AcDbEntity
8
Eagleview - 2D Roof Facets
6
Continuous
100
AcDbVertex
100
AcDb3dPolylineVertex
10
0.000000
20
-563.745351
30
0.000000
70
32
0
VERTEX
5
2D8
330
2D5
100
AcDbEntity
8
Eagleview - 2D Roof Facets
6
Continuous
100
AcDbVertex
100
AcDb3dPolylineVertex
10
3.899326
20
-563.979340
30
-0.000000
70
32
0
SEQEND
5
2D6
330
2D5
100
AcDbEntity
1001
EVT
1002
{
1000
LineDesc
1000
P112-EAVE L84
1002
}
0
TEXT
5
2D9
330
1C
100
AcDbEntity
8
Eagleview - 2D Roof Facets
6
Continuous
100
AcDbText
10
0.000000
20
-566.479340
30
0.000000
40
1.000000
1
Facet: C
100
AcDbText
0
TEXT
5
2DA
330
1C
100
AcDbEntity
8
Eagleview - 2D Roof Facets
6
Continuous
100
AcDbText
10
0.000000
20
-567.979340
30
0.000000
40
1.000000
1
Pitch: 26
100
AcDbText
0
TEXT
5
2DB
330
1C
100
AcDbEntity
8
Eagleview - 2D Roof Facets
6
Continuous
100
AcDbText
10
0.000000
20
-569.479340
30
0.000000
40
1.000000
1
Orientation: 262
100
AcDbText
0
TEXT
5
2DC
330
1C
100
AcDbEntity
8
defpoints
6
Continuous
100
AcDbText
10
77.907519
20
51.820408
30
1.733027
40
1.000000
1
D
100
AcDbText
0
POLYLINE
5
2DD
330
1C
100
AcDbEntity
8
Eagleview - 2D Roof Facets
6
Continuous
420
0
100
AcDb3dPolyline
10
0.0
20
0.0
30
0.000000
70
9
0
VERTEX
5
2DF
330
2DD
100
AcDbEntity
8
Eagleview - 2D Roof Facets
6
Continuous
100
AcDbVertex
100
AcDb3dPolylineVertex
10
0.000000
20
-586.871451
30
-0.000000
70
32
0
VERTEX
5
2E0
330
2DD
100
AcDbEntity
8
Eagleview - 2D Roof Facets
6
Continuous
100
AcDbVertex
100
AcDb3dPolylineVertex
10
4.188277
20
-586.639633
30
-0.000000
70
32
0
SEQEND
5
2DE
330
2DD
100
AcDbEntity
1001
EVT
1002
{
1000
LineDesc
1000
P113-EAVE L85
1002
}
0
POLYLINE
5
2E1
330
1C
100
AcDbEntity
8
Eagleview - 2D Roof Facets
6
Continuous
420
16711680
100
AcDb3dPolyline
10
0.0
20
0.0
30
0.000000
70
9
0
VERTEX
5
2E3
330
2E1
100
AcDbEntity
8
Eagleview - 2D Roof Facets
6
Continuous
100
AcDbVertex
100
AcDb3dPolylineVertex
10
4.188277
20
-586.639633
30
-0.000000
70
32
0
VERTEX
5
2E4
330
2E1
100
AcDbEntity
8
Eagleview - 2D Roof Facets
6
Continuous
100
AcDbVertex
100
AcDb3dPolylineVertex
10
3.426943
20
-578.479340
30
0.000000
70
32
0
SEQEND
5
2E2
330
2E1
100
AcDbEntity
1001
EVT
1002
{
1000
LineDesc
1000
P114-HIP L83
1002
}
0
POLYLINE
5
2E5
330
1C
100
AcDbEntity
8
Eagleview - 2D Roof Facets
6
Continuous
420
16711680
100
AcDb3dPolyline
10
0.0
20
0.0
30
0.000000
70
9
0
VERTEX
5
2E7
330
2E5
100
AcDbEntity
8
Eagleview - 2D Roof Facets
6
Continuous
100
AcDbVertex
100
AcDb3dPolylineVertex
10
3.426943
20
-578.479340
30
0.000000
70
32
0
VERTEX
5
2E8
330
2E5
100
AcDbEntity
8
Eagleview - 2D Roof Facets
6
Continuous
100
AcDbVertex
100
AcDb3dPolylineVertex
10
0.000000
20
-586.871451
30
-0.000000
70
32
0
SEQEND
5
2E6
330
2E5
100
AcDbEntity
1001
EVT
1002
{
1000
LineDesc
1000
P115-HIP L79
1002
}
0
TEXT
5
2E9
330
1C
100
AcDbEntity
8
Eagleview - 2D Roof Facets
6
Continuous
100
AcDbText
10
0.000000
20
-589.371451
30
0.000000
40
1.000000
1
Facet: D
100
AcDbText
0
TEXT
5
2EA
330
1C
100
AcDbEntity
8
Eagleview - 2D Roof Facets
6
Continuous
100
AcDbText
10
0.000000
20
-590.871451
30
0.000000
40
1.000000
1
Pitch: 26
100
AcDbText
0
TEXT
5
2EB
330
1C
100
AcDbEntity
8
Eagleview - 2D Roof Facets
6
Continuous
100
AcDbText
10
0.000000
20
-592.371451
30
0.000000
40
1.000000
1
Orientation: 166
100
AcDbText
0
POLYLINE
5
2EC
330
1C
100
AcDbEntity
8
Eagleview - 2D Roof Facets
6
Continuous
420
16711935
100
AcDb3dPolyline
10
0.0
20
0.0
30
0.000000
70
9
0
VERTEX
5
2EE
330
2EC
100
AcDbEntity
8
Eagleview - 2D Roof Facets
6
Continuous
100
AcDbVertex
100
AcDb3dPolylineVertex
10
5.232072
20
-220.695728
30
0.000001
70
32
0
VERTEX
5
2EF
330
2EC
100
AcDbEntity
8
Eagleview - 2D Roof Facets
6
Continuous
100
AcDbVertex
100
AcDb3dPolylineVertex
10
5.232072
20
-222.695728
30
0.000001
70
32
0
SEQEND
5
2ED
330
2EC
100
AcDbEntity
1001
EVT
1002
{
1000
LineDesc
1000
P116-OTHER 
1002
}
0
POLYLINE
5
2F0
330
1C
100
AcDbEntity
8
Eagleview - 2D Roof Facets
6
Continuous
420
16711935
100
AcDb3dPolyline
10
0.0
20
0.0
30
0.000000
70
9
0
VERTEX
5
2F2
330
2F0
100
AcDbEntity
8
Eagleview - 2D Roof Facets
6
Continuous
100
AcDbVertex
100
AcDb3dPolylineVertex
10
5.232072
20
-222.695728
30
0.000001
70
32
0
VERTEX
5
2F3
330
2F0
100
AcDbEntity
8
Eagleview - 2D Roof Facets
6
Continuous
100
AcDbVertex
100
AcDb3dPolylineVertex
10
3.232072
20
-222.695729
30
0.000001
70
32
0
SEQEND
5
2F1
330
2F0
100
AcDbEntity
1001
EVT
1002
{
1000
LineDesc
1000
P117-OTHER 
1002
}
0
POLYLINE
5
2F4
330
1C
100
AcDbEntity
8
Eagleview - 2D Roof Facets
6
Continuous
420
16711935
100
AcDb3dPolyline
10
0.0
20
0.0
30
0.000000
70
9
0
VERTEX
5
2F6
330
2F4
100
AcDbEntity
8
Eagleview - 2D Roof Facets
6
Continuous
100
AcDbVertex
100
AcDb3dPolylineVertex
10
3.232072
20
-222.695729
30
0.000001
70
32
0
VERTEX
5
2F7
330
2F4
100
AcDbEntity
8
Eagleview - 2D Roof Facets
6
Continuous
100
AcDbVertex
100
AcDb3dPolylineVertex
10
3.232071
20
-220.695728
30
0.000001
70
32
0
SEQEND
5
2F5
330
2F4
100
AcDbEntity
1001
EVT
1002
{
1000
LineDesc
1000
P118-OTHER 
1002
}
0
POLYLINE
5
2F8
330
1C
100
AcDbEntity
8
Eagleview - 2D Roof Facets
6
Continuous
420
16711935
100
AcDb3dPolyline
10
0.0
20
0.0
30
0.000000
70
9
0
VERTEX
5
2FA
330
2F8
100
AcDbEntity
8
Eagleview - 2D Roof Facets
6
Continuous
100
AcDbVertex
100
AcDb3dPolylineVertex
10
3.232071
20
-220.695728
30
0.000001
70
32
0
VERTEX
5
2FB
330
2F8
100
AcDbEntity
8
Eagleview - 2D Roof Facets
6
Continuous
100
AcDbVertex
100
AcDb3dPolylineVertex
10
5.232072
20
-220.695728
30
0.000001
70
32
0
SEQEND
5
2F9
330
2F8
100
AcDbEntity
1001
EVT
1002
{
1000
LineDesc
1000
P119-OTHER 
1002
}
0
POLYLINE
5
2FC
330
1C
100
AcDbEntity
8
Eagleview - 2D Roof Facets
6
Continuous
420
16711935
100
AcDb3dPolyline
10
0.0
20
0.0
30
0.000000
70
9
0
VERTEX
5
2FE
330
2FC
100
AcDbEntity
8
Eagleview - 2D Roof Facets
6
Continuous
100
AcDbVertex
100
AcDb3dPolylineVertex
10
15.396444
20
-220.601837
30
0.000000
70
32
0
VERTEX
5
2FF
330
2FC
100
AcDbEntity
8
Eagleview - 2D Roof Facets
6
Continuous
100
AcDbVertex
100
AcDb3dPolylineVertex
10
15.396442
20
-222.601837
30
0.000000
70
32
0
SEQEND
5
2FD
330
2FC
100
AcDbEntity
1001
EVT
1002
{
1000
LineDesc
1000
P120-OTHER 
1002
}
0
POLYLINE
5
300
330
1C
100
AcDbEntity
8
Eagleview - 2D Roof Facets
6
Continuous
420
16711935
100
AcDb3dPolyline
10
0.0
20
0.0
30
0.000000
70
9
0
VERTEX
5
302
330
300
100
AcDbEntity
8
Eagleview - 2D Roof Facets
6
Continuous
100
AcDbVertex
100
AcDb3dPolylineVertex
10
15.396442
20
-222.601837
30
0.000000
70
32
0
VERTEX
5
303
330
300
100
AcDbEntity
8
Eagleview - 2D Roof Facets
6
Continuous
100
AcDbVertex
100
AcDb3dPolylineVertex
10
13.396443
20
-222.601838
30
0.000001
70
32
0
SEQEND
5
301
330
300
100
AcDbEntity
1001
EVT
1002
{
1000
LineDesc
1000
P121-OTHER 
1002
}
0
POLYLINE
5
304
330
1C
100
AcDbEntity
8
Eagleview - 2D Roof Facets
6
Continuous
420
16711935
100
AcDb3dPolyline
10
0.0
20
0.0
30
0.000000
70
9
0
VERTEX
5
306
330
304
100
AcDbEntity
8
Eagleview - 2D Roof Facets
6
Continuous
100
AcDbVertex
100
AcDb3dPolylineVertex
10
13.396443
20
-222.601838
30
0.000001
70
32
0
VERTEX
5
307
330
304
100
AcDbEntity
8
Eagleview - 2D Roof Facets
6
Continuous
100
AcDbVertex
100
AcDb3dPolylineVertex
10
13.396444
20
-220.601837
30
0.000001
70
32
0
SEQEND
5
305
330
304
100
AcDbEntity
1001
EVT
1002
{
1000
LineDesc
1000
P122-OTHER 
1002
}
0
POLYLINE
5
308
330
1C
100
AcDbEntity
8
Eagleview - 2D Roof Facets
6
Continuous
420
16711935
100
AcDb3dPolyline
10
0.0
20
0.0
30
0.000000
70
9
0
VERTEX
5
30A
330
308
100
AcDbEntity
8
Eagleview - 2D Roof Facets
6
Continuous
100
AcDbVertex
100
AcDb3dPolylineVertex
10
13.396444
20
-220.601837
30
0.000001
70
32
0
VERTEX
5
30B
330
308
100
AcDbEntity
8
Eagleview - 2D Roof Facets
6
Continuous
100
AcDbVertex
100
AcDb3dPolylineVertex
10
15.396444
20
-220.601837
30
0.000000
70
32
0
SEQEND
5
309
330
308
100
AcDbEntity
1001
EVT
1002
{
1000
LineDesc
1000
P123-OTHER 
1002
}
0
POLYLINE
5
30C
330
1C
100
AcDbEntity
8
Eagleview - 2D Roof Facets
6
Continuous
420
16711935
100
AcDb3dPolyline
10
0.0
20
0.0
30
0.000000
70
9
0
VERTEX
5
30E
330
30C
100
AcDbEntity
8
Eagleview - 2D Roof Facets
6
Continuous
100
AcDbVertex
100
AcDb3dPolylineVertex
10
21.484256
20
-158.124381
30
0.000003
70
32
0
VERTEX
5
30F
330
30C
100
AcDbEntity
8
Eagleview - 2D Roof Facets
6
Continuous
100
AcDbVertex
100
AcDb3dPolylineVertex
10
21.484258
20
-160.124381
30
0.000003
70
32
0
SEQEND
5
30D
330
30C
100
AcDbEntity
1001
EVT
1002
{
1000
LineDesc
1000
P124-OTHER 
1002
}
0
POLYLINE
5
310
330
1C
100
AcDbEntity
8
Eagleview - 2D Roof Facets
6
Continuous
420
16711935
100
AcDb3dPolyline
10
0.0
20
0.0
30
0.000000
70
9
0
VERTEX
5
312
330
310
100
AcDbEntity
8
Eagleview - 2D Roof Facets
6
Continuous
100
AcDbVertex
100
AcDb3dPolylineVertex
10
21.484258
20
-160.124381
30
0.000003
70
32
0
VERTEX
5
313
330
310
100
AcDbEntity
8
Eagleview - 2D Roof Facets
6
Continuous
100
AcDbVertex
100
AcDb3dPolylineVertex
10
19.484257
20
-160.124381
30
0.000003
70
32
0
SEQEND
5
311
330
310
100
AcDbEntity
1001
EVT
1002
{
1000
LineDesc
1000
P125-OTHER 
1002
}
0
POLYLINE
5
314
330
1C
100
AcDbEntity
8
Eagleview - 2D Roof Facets
6
Continuous
420
16711935
100
AcDb3dPolyline
10
0.0
20
0.0
30
0.000000
70
9
0
VERTEX
5
316
330
314
100
AcDbEntity
8
Eagleview - 2D Roof Facets
6
Continuous
100
AcDbVertex
100
AcDb3dPolylineVertex
10
19.484257
20
-160.124381
30
0.000003
70
32
0
VERTEX
5
317
330
314
100
AcDbEntity
8
Eagleview - 2D Roof Facets
6
Continuous
100
AcDbVertex
100
AcDb3dPolylineVertex
10
19.484256
20
-158.124381
30
0.000004
70
32
0
SEQEND
5
315
330
314
100
AcDbEntity
1001
EVT
1002
{
1000
LineDesc
1000
P126-OTHER 
1002
}
0
POLYLINE
5
318
330
1C
100
AcDbEntity
8
Eagleview - 2D Roof Facets
6
Continuous
420
16711935
100
AcDb3dPolyline
10
0.0
20
0.0
30
0.000000
70
9
0
VERTEX
5
31A
330
318
100
AcDbEntity
8
Eagleview - 2D Roof Facets
6
Continuous
100
AcDbVertex
100
AcDb3dPolylineVertex
10
19.484256
20
-158.124381
30
0.000004
70
32
0
VERTEX
5
31B
330
318
100
AcDbEntity
8
Eagleview - 2D Roof Facets
6
Continuous
100
AcDbVertex
100
AcDb3dPolylineVertex
10
21.484256
20
-158.124381
30
0.000003
70
32
0
SEQEND
5
319
330
318
100
AcDbEntity
1001
EVT
1002
{
1000
LineDesc
1000
P127-OTHER 
1002
}
0
POLYLINE
5
31C
330
1C
100
AcDbEntity
8
Eagleview - 2D Roof Facets
6
Continuous
420
16711935
100
AcDb3dPolyline
10
0.0
20
0.0
30
0.000000
70
9
0
VERTEX
5
31E
330
31C
100
AcDbEntity
8
Eagleview - 2D Roof Facets
6
Continuous
100
AcDbVertex
100
AcDb3dPolylineVertex
10
27.602755
20
11.911101
30
0.000001
70
32
0
VERTEX
5
31F
330
31C
100
AcDbEntity
8
Eagleview - 2D Roof Facets
6
Continuous
100
AcDbVertex
100
AcDb3dPolylineVertex
10
27.602755
20
9.911101
30
0.000001
70
32
0
SEQEND
5
31D
330
31C
100
AcDbEntity
1001
EVT
1002
{
1000
LineDesc
1000
P128-OTHER 
1002
}
0
POLYLINE
5
320
330
1C
100
AcDbEntity
8
Eagleview - 2D Roof Facets
6
Continuous
420
16711935
100
AcDb3dPolyline
10
0.0
20
0.0
30
0.000000
70
9
0
VERTEX
5
322
330
320
100
AcDbEntity
8
Eagleview - 2D Roof Facets
6
Continuous
100
AcDbVertex
100
AcDb3dPolylineVertex
10
27.602755
20
9.911101
30
0.000001
70
32
0
VERTEX
5
323
330
320
100
AcDbEntity
8
Eagleview - 2D Roof Facets
6
Continuous
100
AcDbVertex
100
AcDb3dPolylineVertex
10
25.602755
20
9.911101
30
0.000001
70
32
0
SEQEND
5
321
330
320
100
AcDbEntity
1001
EVT
1002
{
1000
LineDesc
1000
P129-OTHER 
1002
}
0
POLYLINE
5
324
330
1C
100
AcDbEntity
8
Eagleview - 2D Roof Facets
6
Continuous
420
16711935
100
AcDb3dPolyline
10
0.0
20
0.0
30
0.000000
70
9
0
VERTEX
5
326
330
324
100
AcDbEntity
8
Eagleview - 2D Roof Facets
6
Continuous
100
AcDbVertex
100
AcDb3dPolylineVertex
10
25.602755
20
9.911101
30
0.000001
70
32
0
VERTEX
5
327
330
324
100
AcDbEntity
8
Eagleview - 2D Roof Facets
6
Continuous
100
AcDbVertex
100
AcDb3dPolylineVertex
10
25.602758
20
11.911103
30
-0.000000
70
32
0
SEQEND
5
325
330
324
100
AcDbEntity
1001
EVT
1002
{
1000
LineDesc
1000
P130-OTHER 
1002
}
0
POLYLINE
5
328
330
1C
100
AcDbEntity
8
Eagleview - 2D Roof Facets
6
Continuous
420
16711935
100
AcDb3dPolyline
10
0.0
20
0.0
30
0.000000
70
9
0
VERTEX
5
32A
330
328
100
AcDbEntity
8
Eagleview - 2D Roof Facets
6
Continuous
100
AcDbVertex
100
AcDb3dPolylineVertex
10
25.602758
20
11.911103
30
-0.000000
70
32
0
VERTEX
5
32B
330
328
100
AcDbEntity
8
Eagleview - 2D Roof Facets
6
Continuous
100
AcDbVertex
100
AcDb3dPolylineVertex
10
27.602755
20
11.911101
30
0.000001
70
32
0
SEQEND
5
329
330
328
100
AcDbEntity
1001
EVT
1002
{
1000
LineDesc
1000
P131-OTHER 
1002
}
0
POLYLINE
5
32C
330
1C
100
AcDbEntity
8
Eagleview - 2D Roof Facets
6
Continuous
420
16711935
100
AcDb3dPolyline
10
0.0
20
0.0
30
0.000000
70
9
0
VERTEX
5
32E
330
32C
100
AcDbEntity
8
Eagleview - 2D Roof Facets
6
Continuous
100
AcDbVertex
100
AcDb3dPolylineVertex
10
40.802053
20
-221.312582
30
-0.000000
70
32
0
VERTEX
5
32F
330
32C
100
AcDbEntity
8
Eagleview - 2D Roof Facets
6
Continuous
100
AcDbVertex
100
AcDb3dPolylineVertex
10
40.802054
20
-223.312583
30
-0.000000
70
32
0
SEQEND
5
32D
330
32C
100
AcDbEntity
1001
EVT
1002
{
1000
LineDesc
1000
P132-OTHER 
1002
}
0
POLYLINE
5
330
330
1C
100
AcDbEntity
8
Eagleview - 2D Roof Facets
6
Continuous
420
16711935
100
AcDb3dPolyline
10
0.0
20
0.0
30
0.000000
70
9
0
VERTEX
5
332
330
330
100
AcDbEntity
8
Eagleview - 2D Roof Facets
6
Continuous
100
AcDbVertex
100
AcDb3dPolylineVertex
10
40.802054
20
-223.312583
30
-0.000000
70
32
0
VERTEX
5
333
330
330
100
AcDbEntity
8
Eagleview - 2D Roof Facets
6
Continuous
100
AcDbVertex
100
AcDb3dPolylineVertex
10
38.802053
20
-223.312582
30
-0.000001
70
32
0
SEQEND
5
331
330
330
100
AcDbEntity
1001
EVT
1002
{
1000
LineDesc
1000
P133-OTHER 
1002
}
0
POLYLINE
5
334
330
1C
100
AcDbEntity
8
Eagleview - 2D Roof Facets
6
Continuous
420
16711935
100
AcDb3dPolyline
10
0.0
20
0.0
30
0.000000
70
9
0
VERTEX
5
336
330
334
100
AcDbEntity
8
Eagleview - 2D Roof Facets
6
Continuous
100
AcDbVertex
100
AcDb3dPolylineVertex
10
38.802053
20
-223.312582
30
-0.000001
70
32
0
VERTEX
5
337
330
334
100
AcDbEntity
8
Eagleview - 2D Roof Facets
6
Continuous
100
AcDbVertex
100
AcDb3dPolylineVertex
10
38.802053
20
-221.312583
30
-0.000000
70
32
0
SEQEND
5
335
330
334
100
AcDbEntity
1001
EVT
1002
{
1000
LineDesc
1000
P134-OTHER 
1002
}
0
POLYLINE
5
338
330
1C
100
AcDbEntity
8
Eagleview - 2D Roof Facets
6
Continuous
420
16711935
100
AcDb3dPolyline
10
0.0
20
0.0
30
0.000000
70
9
0
VERTEX
5
33A
330
338
100
AcDbEntity
8
Eagleview - 2D Roof Facets
6
Continuous
100
AcDbVertex
100
AcDb3dPolylineVertex
10
38.802053
20
-221.312583
30
-0.000000
70
32
0
VERTEX
5
33B
330
338
100
AcDbEntity
8
Eagleview - 2D Roof Facets
6
Continuous
100
AcDbVertex
100
AcDb3dPolylineVertex
10
40.802053
20
-221.312582
30
-0.000000
70
32
0
SEQEND
5
339
330
338
100
AcDbEntity
1001
EVT
1002
{
1000
LineDesc
1000
P135-OTHER 
1002
}
0
POLYLINE
5
33C
330
1C
100
AcDbEntity
8
Eagleview - 2D Roof Facets
6
Continuous
420
16711935
100
AcDb3dPolyline
10
0.0
20
0.0
30
0.000000
70
9
0
VERTEX
5
33E
330
33C
100
AcDbEntity
8
Eagleview - 2D Roof Facets
6
Continuous
100
AcDbVertex
100
AcDb3dPolylineVertex
10
50.614327
20
-220.945671
30
-0.000000
70
32
0
VERTEX
5
33F
330
33C
100
AcDbEntity
8
Eagleview - 2D Roof Facets
6
Continuous
100
AcDbVertex
100
AcDb3dPolylineVertex
10
50.614328
20
-222.945672
30
-0.000001
70
32
0
SEQEND
5
33D
330
33C
100
AcDbEntity
1001
EVT
1002
{
1000
LineDesc
1000
P136-OTHER 
1002
}
0
POLYLINE
5
340
330
1C
100
AcDbEntity
8
Eagleview - 2D Roof Facets
6
Continuous
420
16711935
100
AcDb3dPolyline
10
0.0
20
0.0
30
0.000000
70
9
0
VERTEX
5
342
330
340
100
AcDbEntity
8
Eagleview - 2D Roof Facets
6
Continuous
100
AcDbVertex
100
AcDb3dPolylineVertex
10
50.614328
20
-222.945672
30
-0.000001
70
32
0
VERTEX
5
343
330
340
100
AcDbEntity
8
Eagleview - 2D Roof Facets
6
Continuous
100
AcDbVertex
100
AcDb3dPolylineVertex
10
48.614327
20
-222.945672
30
-0.000001
70
32
0
SEQEND
5
341
330
340
100
AcDbEntity
1001
EVT
1002
{
1000
LineDesc
1000
P137-OTHER 
1002
}
0
POLYLINE
5
344
330
1C
100
AcDbEntity
8
Eagleview - 2D Roof Facets
6
Continuous
420
16711935
100
AcDb3dPolyline
10
0.0
20
0.0
30
0.000000
70
9
0
VERTEX
5
346
330
344
100
AcDbEntity
8
Eagleview - 2D Roof Facets
6
Continuous
100
AcDbVertex
100
AcDb3dPolylineVertex
10
48.614327
20
-222.945672
30
-0.000001
70
32
0
VERTEX
5
347
330
344
100
AcDbEntity
8
Eagleview - 2D Roof Facets
6
Continuous
100
AcDbVertex
100
AcDb3dPolylineVertex
10
48.614327
20
-220.945672
30
0.000000
70
32
0
SEQEND
5
345
330
344
100
AcDbEntity
1001
EVT
1002
{
1000
LineDesc
1000
P138-OTHER 
1002
}
0
POLYLINE
5
348
330
1C
100
AcDbEntity
8
Eagleview - 2D Roof Facets
6
Continuous
420
16711935
100
AcDb3dPolyline
10
0.0
20
0.0
30
0.000000
70
9
0
VERTEX
5
34A
330
348
100
AcDbEntity
8
Eagleview - 2D Roof Facets
6
Continuous
100
AcDbVertex
100
AcDb3dPolylineVertex
10
48.614327
20
-220.945672
30
0.000000
70
32
0
VERTEX
5
34B
330
348
100
AcDbEntity
8
Eagleview - 2D Roof Facets
6
Continuous
100
AcDbVertex
100
AcDb3dPolylineVertex
10
50.614327
20
-220.945671
30
-0.000000
70
32
0
SEQEND
5
349
330
348
100
AcDbEntity
1001
EVT
1002
{
1000
LineDesc
1000
P139-OTHER 
1002
}
0
POLYLINE
5
34C
330
1C
100
AcDbEntity
8
Eagleview - 2D Roof Facets
6
Continuous
420
16711935
100
AcDb3dPolyline
10
0.0
20
0.0
30
0.000000
70
9
0
VERTEX
5
34E
330
34C
100
AcDbEntity
8
Eagleview - 2D Roof Facets
6
Continuous
100
AcDbVertex
100
AcDb3dPolylineVertex
10
32.387501
20
-77.731520
30
-0.000002
70
32
0
VERTEX
5
34F
330
34C
100
AcDbEntity
8
Eagleview - 2D Roof Facets
6
Continuous
100
AcDbVertex
100
AcDb3dPolylineVertex
10
32.387501
20
-81.231519
30
-0.000003
70
32
0
SEQEND
5
34D
330
34C
100
AcDbEntity
1001
EVT
1002
{
1000
LineDesc
1000
P140-OTHER 
1002
}
0
POLYLINE
5
350
330
1C
100
AcDbEntity
8
Eagleview - 2D Roof Facets
6
Continuous
420
16711935
100
AcDb3dPolyline
10
0.0
20
0.0
30
0.000000
70
9
0
VERTEX
5
352
330
350
100
AcDbEntity
8
Eagleview - 2D Roof Facets
6
Continuous
100
AcDbVertex
100
AcDb3dPolylineVertex
10
32.387501
20
-81.231519
30
-0.000003
70
32
0
VERTEX
5
353
330
350
100
AcDbEntity
8
Eagleview - 2D Roof Facets
6
Continuous
100
AcDbVertex
100
AcDb3dPolylineVertex
10
28.887502
20
-81.231522
30
-0.000001
70
32
0
SEQEND
5
351
330
350
100
AcDbEntity
1001
EVT
1002
{
1000
LineDesc
1000
P141-OTHER 
1002
}
0
POLYLINE
5
354
330
1C
100
AcDbEntity
8
Eagleview - 2D Roof Facets
6
Continuous
420
16711935
100
AcDb3dPolyline
10
0.0
20
0.0
30
0.000000
70
9
0
VERTEX
5
356
330
354
100
AcDbEntity
8
Eagleview - 2D Roof Facets
6
Continuous
100
AcDbVertex
100
AcDb3dPolylineVertex
10
28.887502
20
-81.231522
30
-0.000001
70
32
0
VERTEX
5
357
330
354
100
AcDbEntity
8
Eagleview - 2D Roof Facets
6
Continuous
100
AcDbVertex
100
AcDb3dPolylineVertex
10
28.887499
20
-77.731520
30
-0.000002
70
32
0
SEQEND
5
355
330
354
100
AcDbEntity
1001
EVT
1002
{
1000
LineDesc
1000
P142-OTHER 
1002
}
0
POLYLINE
5
358
330
1C
100
AcDbEntity
8
Eagleview - 2D Roof Facets
6
Continuous
420
16711935
100
AcDb3dPolyline
10
0.0
20
0.0
30
0.000000
70
9
0
VERTEX
5
35A
330
358
100
AcDbEntity
8
Eagleview - 2D Roof Facets
6
Continuous
100
AcDbVertex
100
AcDb3dPolylineVertex
10
28.887499
20
-77.731520
30
-0.000002
70
32
0
VERTEX
5
35B
330
358
100
AcDbEntity
8
Eagleview - 2D Roof Facets
6
Continuous
100
AcDbVertex
100
AcDb3dPolylineVertex
10
32.387501
20
-77.731520
30
-0.000002
70
32
0
SEQEND
5
359
330
358
100
AcDbEntity
1001
EVT
1002
{
1000
LineDesc
1000
P143-OTHER 
1002
}
0
POLYLINE
5
35C
330
1C
100
AcDbEntity
8
Eagleview - 2D Roof Facets
6
Continuous
420
16711935
100
AcDb3dPolyline
10
0.0
20
0.0
30
0.000000
70
9
0
VERTEX
5
35E
330
35C
100
AcDbEntity
8
Eagleview - 2D Roof Facets
6
Continuous
100
AcDbVertex
100
AcDb3dPolylineVertex
10
21.064130
20
-222.319021
30
0.000001
70
32
0
VERTEX
5
35F
330
35C
100
AcDbEntity
8
Eagleview - 2D Roof Facets
6
Continuous
100
AcDbVertex
100
AcDb3dPolylineVertex
10
21.064131
20
-223.819020
30
0.000000
70
32
0
SEQEND
5
35D
330
35C
100
AcDbEntity
1001
EVT
1002
{
1000
LineDesc
1000
P144-OTHER 
1002
}
0
POLYLINE
5
360
330
1C
100
AcDbEntity
8
Eagleview - 2D Roof Facets
6
Continuous
420
16711935
100
AcDb3dPolyline
10
0.0
20
0.0
30
0.000000
70
9
0
VERTEX
5
362
330
360
100
AcDbEntity
8
Eagleview - 2D Roof Facets
6
Continuous
100
AcDbVertex
100
AcDb3dPolylineVertex
10
21.064131
20
-223.819020
30
0.000000
70
32
0
VERTEX
5
363
330
360
100
AcDbEntity
8
Eagleview - 2D Roof Facets
6
Continuous
100
AcDbVertex
100
AcDb3dPolylineVertex
10
19.564130
20
-223.819020
30
0.000000
70
32
0
SEQEND
5
361
330
360
100
AcDbEntity
1001
EVT
1002
{
1000
LineDesc
1000
P145-OTHER 
1002
}
0
POLYLINE
5
364
330
1C
100
AcDbEntity
8
Eagleview - 2D Roof Facets
6
Continuous
420
16711935
100
AcDb3dPolyline
10
0.0
20
0.0
30
0.000000
70
9
0
VERTEX
5
366
330
364
100
AcDbEntity
8
Eagleview - 2D Roof Facets
6
Continuous
100
AcDbVertex
100
AcDb3dPolylineVertex
10
19.564130
20
-223.819020
30
0.000000
70
32
0
VERTEX
5
367
330
364
100
AcDbEntity
8
Eagleview - 2D Roof Facets
6
Continuous
100
AcDbVertex
100
AcDb3dPolylineVertex
10
19.564132
20
-222.319019
30
-0.000000
70
32
0
SEQEND
5
365
330
364
100
AcDbEntity
1001
EVT
1002
{
1000
LineDesc
1000
P146-OTHER 
1002
}
0
POLYLINE
5
368
330
1C
100
AcDbEntity
8
Eagleview - 2D Roof Facets
6
Continuous
420
16711935
100
AcDb3dPolyline
10
0.0
20
0.0
30
0.000000
70
9
0
VERTEX
5
36A
330
368
100
AcDbEntity
8
Eagleview - 2D Roof Facets
6
Continuous
100
AcDbVertex
100
AcDb3dPolylineVertex
10
19.564132
20
-222.319019
30
-0.000000
70
32
0
VERTEX
5
36B
330
368
100
AcDbEntity
8
Eagleview - 2D Roof Facets
6
Continuous
100
AcDbVertex
100
AcDb3dPolylineVertex
10
21.064130
20
-222.319021
30
0.000001
70
32
0
SEQEND
5
369
330
368
100
AcDbEntity
1001
EVT
1002
{
1000
LineDesc
1000
P147-OTHER 
1002
}
0
POLYLINE
5
36C
330
1C
100
AcDbEntity
8
Eagleview - 2D Roof Facets
6
Continuous
420
16711935
100
AcDb3dPolyline
10
0.0
20
0.0
30
0.000000
70
9
0
VERTEX
5
36E
330
36C
100
AcDbEntity
8
Eagleview - 2D Roof Facets
6
Continuous
100
AcDbVertex
100
AcDb3dPolylineVertex
10
22.818489
20
-219.754007
30
0.000000
70
32
0
VERTEX
5
36F
330
36C
100
AcDbEntity
8
Eagleview - 2D Roof Facets
6
Continuous
100
AcDbVertex
100
AcDb3dPolylineVertex
10
22.818490
20
-221.254006
30
-0.000000
70
32
0
SEQEND
5
36D
330
36C
100
AcDbEntity
1001
EVT
1002
{
1000
LineDesc
1000
P148-OTHER 
1002
}
0
POLYLINE
5
370
330
1C
100
AcDbEntity
8
Eagleview - 2D Roof Facets
6
Continuous
420
16711935
100
AcDb3dPolyline
10
0.0
20
0.0
30
0.000000
70
9
0
VERTEX
5
372
330
370
100
AcDbEntity
8
Eagleview - 2D Roof Facets
6
Continuous
100
AcDbVertex
100
AcDb3dPolylineVertex
10
22.818490
20
-221.254006
30
-0.000000
70
32
0
VERTEX
5
373
330
370
100
AcDbEntity
8
Eagleview - 2D Roof Facets
6
Continuous
100
AcDbVertex
100
AcDb3dPolylineVertex
10
21.318490
20
-221.254008
30
0.000001
70
32
0
SEQEND
5
371
330
370
100
AcDbEntity
1001
EVT
1002
{
1000
LineDesc
1000
P149-OTHER 
1002
}
0
POLYLINE
5
374
330
1C
100
AcDbEntity
8
Eagleview - 2D Roof Facets
6
Continuous
420
16711935
100
AcDb3dPolyline
10
0.0
20
0.0
30
0.000000
70
9
0
VERTEX
5
376
330
374
100
AcDbEntity
8
Eagleview - 2D Roof Facets
6
Continuous
100
AcDbVertex
100
AcDb3dPolylineVertex
10
21.318490
20
-221.254008
30
0.000001
70
32
0
VERTEX
5
377
330
374
100
AcDbEntity
8
Eagleview - 2D Roof Facets
6
Continuous
100
AcDbVertex
100
AcDb3dPolylineVertex
10
21.318489
20
-219.754009
30
0.000001
70
32
0
SEQEND
5
375
330
374
100
AcDbEntity
1001
EVT
1002
{
1000
LineDesc
1000
P150-OTHER 
1002
}
0
POLYLINE
5
378
330
1C
100
AcDbEntity
8
Eagleview - 2D Roof Facets
6
Continuous
420
16711935
100
AcDb3dPolyline
10
0.0
20
0.0
30
0.000000
70
9
0
VERTEX
5
37A
330
378
100
AcDbEntity
8
Eagleview - 2D Roof Facets
6
Continuous
100
AcDbVertex
100
AcDb3dPolylineVertex
10
21.318489
20
-219.754009
30
0.000001
70
32
0
VERTEX
5
37B
330
378
100
AcDbEntity
8
Eagleview - 2D Roof Facets
6
Continuous
100
AcDbVertex
100
AcDb3dPolylineVertex
10
22.818489
20
-219.754007
30
0.000000
70
32
0
SEQEND
5
379
330
378
100
AcDbEntity
1001
EVT
1002
{
1000
LineDesc
1000
P151-OTHER 
1002
}
0
POLYLINE
5
37C
330
1C
100
AcDbEntity
8
Eagleview - 2D Roof Facets
6
Continuous
420
16711935
100
AcDb3dPolyline
10
0.0
20
0.0
30
0.000000
70
9
0
VERTEX
5
37E
330
37C
100
AcDbEntity
8
Eagleview - 2D Roof Facets
6
Continuous
100
AcDbVertex
100
AcDb3dPolylineVertex
10
36.012622
20
-222.350165
30
-0.000000
70
32
0
VERTEX
5
37F
330
37C
100
AcDbEntity
8
Eagleview - 2D Roof Facets
6
Continuous
100
AcDbVertex
100
AcDb3dPolylineVertex
10
36.012620
20
-223.850165
30
0.000000
70
32
0
SEQEND
5
37D
330
37C
100
AcDbEntity
1001
EVT
1002
{
1000
LineDesc
1000
P152-OTHER 
1002
}
0
POLYLINE
5
380
330
1C
100
AcDbEntity
8
Eagleview - 2D Roof Facets
6
Continuous
420
16711935
100
AcDb3dPolyline
10
0.0
20
0.0
30
0.000000
70
9
0
VERTEX
5
382
330
380
100
AcDbEntity
8
Eagleview - 2D Roof Facets
6
Continuous
100
AcDbVertex
100
AcDb3dPolylineVertex
10
36.012620
20
-223.850165
30
0.000000
70
32
0
VERTEX
5
383
330
380
100
AcDbEntity
8
Eagleview - 2D Roof Facets
6
Continuous
100
AcDbVertex
100
AcDb3dPolylineVertex
10
34.512619
20
-223.850166
30
0.000001
70
32
0
SEQEND
5
381
330
380
100
AcDbEntity
1001
EVT
1002
{
1000
LineDesc
1000
P153-OTHER 
1002
}
0
POLYLINE
5
384
330
1C
100
AcDbEntity
8
Eagleview - 2D Roof Facets
6
Continuous
420
16711935
100
AcDb3dPolyline
10
0.0
20
0.0
30
0.000000
70
9
0
VERTEX
5
386
330
384
100
AcDbEntity
8
Eagleview - 2D Roof Facets
6
Continuous
100
AcDbVertex
100
AcDb3dPolylineVertex
10
34.512619
20
-223.850166
30
0.000001
70
32
0
VERTEX
5
387
330
384
100
AcDbEntity
8
Eagleview - 2D Roof Facets
6
Continuous
100
AcDbVertex
100
AcDb3dPolylineVertex
10
34.512622
20
-222.350165
30
0.000000
70
32
0
SEQEND
5
385
330
384
100
AcDbEntity
1001
EVT
1002
{
1000
LineDesc
1000
P154-OTHER 
1002
}
0
POLYLINE
5
388
330
1C
100
AcDbEntity
8
Eagleview - 2D Roof Facets
6
Continuous
420
16711935
100
AcDb3dPolyline
10
0.0
20
0.0
30
0.000000
70
9
0
VERTEX
5
38A
330
388
100
AcDbEntity
8
Eagleview - 2D Roof Facets
6
Continuous
100
AcDbVertex
100
AcDb3dPolylineVertex
10
34.512622
20
-222.350165
30
0.000000
70
32
0
VERTEX
5
38B
330
388
100
AcDbEntity
8
Eagleview - 2D Roof Facets
6
Continuous
100
AcDbVertex
100
AcDb3dPolylineVertex
10
36.012622
20
-222.350165
30
-0.000000
70
32
0
SEQEND
5
389
330
388
100
AcDbEntity
1001
EVT
1002
{
1000
LineDesc
1000
P155-OTHER 
1002
}
0
POLYLINE
5
38C
330
1C
100
AcDbEntity
8
Eagleview - 2D Roof Facets
6
Continuous
420
16711935
100
AcDb3dPolyline
10
0.0
20
0.0
30
0.000000
70
9
0
VERTEX
5
38E
330
38C
100
AcDbEntity
8
Eagleview - 2D Roof Facets
6
Continuous
100
AcDbVertex
100
AcDb3dPolylineVertex
10
45.210643
20
-235.876162
30
-0.000001
70
32
0
VERTEX
5
38F
330
38C
100
AcDbEntity
8
Eagleview - 2D Roof Facets
6
Continuous
100
AcDbVertex
100
AcDb3dPolylineVertex
10
45.210644
20
-237.376161
30
-0.000001
70
32
0
SEQEND
5
38D
330
38C
100
AcDbEntity
1001
EVT
1002
{
1000
LineDesc
1000
P156-OTHER 
1002
}
0
POLYLINE
5
390
330
1C
100
AcDbEntity
8
Eagleview - 2D Roof Facets
6
Continuous
420
16711935
100
AcDb3dPolyline
10
0.0
20
0.0
30
0.000000
70
9
0
VERTEX
5
392
330
390
100
AcDbEntity
8
Eagleview - 2D Roof Facets
6
Continuous
100
AcDbVertex
100
AcDb3dPolylineVertex
10
45.210644
20
-237.376161
30
-0.000001
70
32
0
VERTEX
5
393
330
390
100
AcDbEntity
8
Eagleview - 2D Roof Facets
6
Continuous
100
AcDbVertex
100
AcDb3dPolylineVertex
10
43.710644
20
-237.376162
30
-0.000000
70
32
0
SEQEND
5
391
330
390
100
AcDbEntity
1001
EVT
1002
{
1000
LineDesc
1000
P157-OTHER 
1002
}
0
POLYLINE
5
394
330
1C
100
AcDbEntity
8
Eagleview - 2D Roof Facets
6
Continuous
420
16711935
100
AcDb3dPolyline
10
0.0
20
0.0
30
0.000000
70
9
0
VERTEX
5
396
330
394
100
AcDbEntity
8
Eagleview - 2D Roof Facets
6
Continuous
100
AcDbVertex
100
AcDb3dPolylineVertex
10
43.710644
20
-237.376162
30
-0.000000
70
32
0
VERTEX
5
397
330
394
100
AcDbEntity
8
Eagleview - 2D Roof Facets
6
Continuous
100
AcDbVertex
100
AcDb3dPolylineVertex
10
43.710642
20
-235.876162
30
-0.000001
70
32
0
SEQEND
5
395
330
394
100
AcDbEntity
1001
EVT
1002
{
1000
LineDesc
1000
P158-OTHER 
1002
}
0
POLYLINE
5
398
330
1C
100
AcDbEntity
8
Eagleview - 2D Roof Facets
6
Continuous
420
16711935
100
AcDb3dPolyline
10
0.0
20
0.0
30
0.000000
70
9
0
VERTEX
5
39A
330
398
100
AcDbEntity
8
Eagleview - 2D Roof Facets
6
Continuous
100
AcDbVertex
100
AcDb3dPolylineVertex
10
43.710642
20
-235.876162
30
-0.000001
70
32
0
VERTEX
5
39B
330
398
100
AcDbEntity
8
Eagleview - 2D Roof Facets
6
Continuous
100
AcDbVertex
100
AcDb3dPolylineVertex
10
45.210643
20
-235.876162
30
-0.000001
70
32
0
SEQEND
5
399
330
398
100
AcDbEntity
1001
EVT
1002
{
1000
LineDesc
1000
P159-OTHER 
1002
}
0
POLYLINE
5
39C
330
1C
100
AcDbEntity
8
Eagleview - 2D Roof Facets
6
Continuous
420
16711935
100
AcDb3dPolyline
10
0.0
20
0.0
30
0.000000
70
9
0
VERTEX
5
39E
330
39C
100
AcDbEntity
8
Eagleview - 2D Roof Facets
6
Continuous
100
AcDbVertex
100
AcDb3dPolylineVertex
10
21.999056
20
-91.812839
30
-0.000002
70
32
0
VERTEX
5
39F
330
39C
100
AcDbEntity
8
Eagleview - 2D Roof Facets
6
Continuous
100
AcDbVertex
100
AcDb3dPolylineVertex
10
21.999058
20
-93.312842
30
-0.000000
70
32
0
SEQEND
5
39D
330
39C
100
AcDbEntity
1001
EVT
1002
{
1000
LineDesc
1000
P160-OTHER 
1002
}
0
POLYLINE
5
3A0
330
1C
100
AcDbEntity
8
Eagleview - 2D Roof Facets
6
Continuous
420
16711935
100
AcDb3dPolyline
10
0.0
20
0.0
30
0.000000
70
9
0
VERTEX
5
3A2
330
3A0
100
AcDbEntity
8
Eagleview - 2D Roof Facets
6
Continuous
100
AcDbVertex
100
AcDb3dPolylineVertex
10
21.999058
20
-93.312842
30
-0.000000
70
32
0
VERTEX
5
3A3
330
3A0
100
AcDbEntity
8
Eagleview - 2D Roof Facets
6
Continuous
100
AcDbVertex
100
AcDb3dPolylineVertex
10
20.499058
20
-93.312842
30
-0.000000
70
32
0
SEQEND
5
3A1
330
3A0
100
AcDbEntity
1001
EVT
1002
{
1000
LineDesc
1000
P161-OTHER 
1002
}
0
POLYLINE
5
3A4
330
1C
100
AcDbEntity
8
Eagleview - 2D Roof Facets
6
Continuous
420
16711935
100
AcDb3dPolyline
10
0.0
20
0.0
30
0.000000
70
9
0
VERTEX
5
3A6
330
3A4
100
AcDbEntity
8
Eagleview - 2D Roof Facets
6
Continuous
100
AcDbVertex
100
AcDb3dPolylineVertex
10
20.499058
20
-93.312842
30
-0.000000
70
32
0
VERTEX
5
3A7
330
3A4
100
AcDbEntity
8
Eagleview - 2D Roof Facets
6
Continuous
100
AcDbVertex
100
AcDb3dPolylineVertex
10
20.499058
20
-91.812842
30
-0.000000
70
32
0
SEQEND
5
3A5
330
3A4
100
AcDbEntity
1001
EVT
1002
{
1000
LineDesc
1000
P162-OTHER 
1002
}
0
POLYLINE
5
3A8
330
1C
100
AcDbEntity
8
Eagleview - 2D Roof Facets
6
Continuous
420
16711935
100
AcDb3dPolyline
10
0.0
20
0.0
30
0.000000
70
9
0
VERTEX
5
3AA
330
3A8
100
AcDbEntity
8
Eagleview - 2D Roof Facets
6
Continuous
100
AcDbVertex
100
AcDb3dPolylineVertex
10
20.499058
20
-91.812842
30
-0.000000
70
32
0
VERTEX
5
3AB
330
3A8
100
AcDbEntity
8
Eagleview - 2D Roof Facets
6
Continuous
100
AcDbVertex
100
AcDb3dPolylineVertex
10
21.999056
20
-91.812839
30
-0.000002
70
32
0
SEQEND
5
3A9
330
3A8
100
AcDbEntity
1001
EVT
1002
{
1000
LineDesc
1000
P163-OTHER 
1002
}
0
POLYLINE
5
3AC
330
1C
100
AcDbEntity
8
Eagleview - 2D Roof Facets
6
Continuous
420
16711935
100
AcDb3dPolyline
10
0.0
20
0.0
30
0.000000
70
9
0
VERTEX
5
3AE
330
3AC
100
AcDbEntity
8
Eagleview - 2D Roof Facets
6
Continuous
100
AcDbVertex
100
AcDb3dPolylineVertex
10
23.524890
20
-164.929075
30
0.000002
70
32
0
VERTEX
5
3AF
330
3AC
100
AcDbEntity
8
Eagleview - 2D Roof Facets
6
Continuous
100
AcDbVertex
100
AcDb3dPolylineVertex
10
23.524892
20
-165.929074
30
0.000001
70
32
0
SEQEND
5
3AD
330
3AC
100
AcDbEntity
1001
EVT
1002
{
1000
LineDesc
1000
P164-OTHER 
1002
}
0
POLYLINE
5
3B0
330
1C
100
AcDbEntity
8
Eagleview - 2D Roof Facets
6
Continuous
420
16711935
100
AcDb3dPolyline
10
0.0
20
0.0
30
0.000000
70
9
0
VERTEX
5
3B2
330
3B0
100
AcDbEntity
8
Eagleview - 2D Roof Facets
6
Continuous
100
AcDbVertex
100
AcDb3dPolylineVertex
10
23.524892
20
-165.929074
30
0.000001
70
32
0
VERTEX
5
3B3
330
3B0
100
AcDbEntity
8
Eagleview - 2D Roof Facets
6
Continuous
100
AcDbVertex
100
AcDb3dPolylineVertex
10
22.524891
20
-165.929075
30
0.000002
70
32
0
SEQEND
5
3B1
330
3B0
100
AcDbEntity
1001
EVT
1002
{
1000
LineDesc
1000
P165-OTHER 
1002
}
0
POLYLINE
5
3B4
330
1C
100
AcDbEntity
8
Eagleview - 2D Roof Facets
6
Continuous
420
16711935
100
AcDb3dPolyline
10
0.0
20
0.0
30
0.000000
70
9
0
VERTEX
5
3B6
330
3B4
100
AcDbEntity
8
Eagleview - 2D Roof Facets
6
Continuous
100
AcDbVertex
100
AcDb3dPolylineVertex
10
22.524891
20
-165.929075
30
0.000002
70
32
0
VERTEX
5
3B7
330
3B4
100
AcDbEntity
8
Eagleview - 2D Roof Facets
6
Continuous
100
AcDbVertex
100
AcDb3dPolylineVertex
10
22.524891
20
-164.929074
30
0.000001
70
32
0
SEQEND
5
3B5
330
3B4
100
AcDbEntity
1001
EVT
1002
{
1000
LineDesc
1000
P166-OTHER 
1002
}
0
POLYLINE
5
3B8
330
1C
100
AcDbEntity
8
Eagleview - 2D Roof Facets
6
Continuous
420
16711935
100
AcDb3dPolyline
10
0.0
20
0.0
30
0.000000
70
9
0
VERTEX
5
3BA
330
3B8
100
AcDbEntity
8
Eagleview - 2D Roof Facets
6
Continuous
100
AcDbVertex
100
AcDb3dPolylineVertex
10
22.524891
20
-164.929074
30
0.000001
70
32
0
VERTEX
5
3BB
330
3B8
100
AcDbEntity
8
Eagleview - 2D Roof Facets
6
Continuous
100
AcDbVertex
100
AcDb3dPolylineVertex
10
23.524890
20
-164.929075
30
0.000002
70
32
0
SEQEND
5
3B9
330
3B8
100
AcDbEntity
1001
EVT
1002
{
1000
LineDesc
1000
P167-OTHER 
1002
}
0
POLYLINE
5
3BC
330
1C
100
AcDbEntity
8
Eagleview - 2D Roof Facets
6
Continuous
420
16711935
100
AcDb3dPolyline
10
0.0
20
0.0
30
0.000000
70
9
0
VERTEX
5
3BE
330
3BC
100
AcDbEntity
8
Eagleview - 2D Roof Facets
6
Continuous
100
AcDbVertex
100
AcDb3dPolylineVertex
10
1.811740
20
-239.269860
30
0.000001
70
32
0
VERTEX
5
3BF
330
3BC
100
AcDbEntity
8
Eagleview - 2D Roof Facets
6
Continuous
100
AcDbVertex
100
AcDb3dPolylineVertex
10
1.811740
20
-240.269860
30
0.000001
70
32
0
SEQEND
5
3BD
330
3BC
100
AcDbEntity
1001
EVT
1002
{
1000
LineDesc
1000
P168-OTHER 
1002
}
0
POLYLINE
5
3C0
330
1C
100
AcDbEntity
8
Eagleview - 2D Roof Facets
6
Continuous
420
16711935
100
AcDb3dPolyline
10
0.0
20
0.0
30
0.000000
70
9
0
VERTEX
5
3C2
330
3C0
100
AcDbEntity
8
Eagleview - 2D Roof Facets
6
Continuous
100
AcDbVertex
100
AcDb3dPolylineVertex
10
1.811740
20
-240.269860
30
0.000001
70
32
0
VERTEX
5
3C3
330
3C0
100
AcDbEntity
8
Eagleview - 2D Roof Facets
6
Continuous
100
AcDbVertex
100
AcDb3dPolylineVertex
10
0.811741
20
-240.269859
30
0.000001
70
32
0
SEQEND
5
3C1
330
3C0
100
AcDbEntity
1001
EVT
1002
{
1000
LineDesc
1000
P169-OTHER 
1002
}
0
POLYLINE
5
3C4
330
1C
100
AcDbEntity
8
Eagleview - 2D Roof Facets
6
Continuous
420
16711935
100
AcDb3dPolyline
10
0.0
20
0.0
30
0.000000
70
9
0
VERTEX
5
3C6
330
3C4
100
AcDbEntity
8
Eagleview - 2D Roof Facets
6
Continuous
100
AcDbVertex
100
AcDb3dPolylineVertex
10
0.811741
20
-240.269859
30
0.000001
70
32
0
VERTEX
5
3C7
330
3C4
100
AcDbEntity
8
Eagleview - 2D Roof Facets
6
Continuous
100
AcDbVertex
100
AcDb3dPolylineVertex
10
0.811741
20
-239.269860
30
0.000001
70
32
0
SEQEND
5
3C5
330
3C4
100
AcDbEntity
1001
EVT
1002
{
1000
LineDesc
1000
P170-OTHER 
1002
}
0
POLYLINE
5
3C8
330
1C
100
AcDbEntity
8
Eagleview - 2D Roof Facets
6
Continuous
420
16711935
100
AcDb3dPolyline
10
0.0
20
0.0
30
0.000000
70
9
0
VERTEX
5
3CA
330
3C8
100
AcDbEntity
8
Eagleview - 2D Roof Facets
6
Continuous
100
AcDbVertex
100
AcDb3dPolylineVertex
10
0.811741
20
-239.269860
30
0.000001
70
32
0
VERTEX
5
3CB
330
3C8
100
AcDbEntity
8
Eagleview - 2D Roof Facets
6
Continuous
100
AcDbVertex
100
AcDb3dPolylineVertex
10
1.811740
20
-239.269860
30
0.000001
70
32
0
SEQEND
5
3C9
330
3C8
100
AcDbEntity
1001
EVT
1002
{
1000
LineDesc
1000
P171-OTHER 
1002
}
0
POLYLINE
5
3CC
330
1C
100
AcDbEntity
8
Eagleview - 2D Roof Facets
6
Continuous
420
16711935
100
AcDb3dPolyline
10
0.0
20
0.0
30
0.000000
70
9
0
VERTEX
5
3CE
330
3CC
100
AcDbEntity
8
Eagleview - 2D Roof Facets
6
Continuous
100
AcDbVertex
100
AcDb3dPolylineVertex
10
1.833807
20
-228.522210
30
0.000001
70
32
0
VERTEX
5
3CF
330
3CC
100
AcDbEntity
8
Eagleview - 2D Roof Facets
6
Continuous
100
AcDbVertex
100
AcDb3dPolylineVertex
10
1.833808
20
-229.522209
30
0.000001
70
32
0
SEQEND
5
3CD
330
3CC
100
AcDbEntity
1001
EVT
1002
{
1000
LineDesc
1000
P172-OTHER 
1002
}
0
POLYLINE
5
3D0
330
1C
100
AcDbEntity
8
Eagleview - 2D Roof Facets
6
Continuous
420
16711935
100
AcDb3dPolyline
10
0.0
20
0.0
30
0.000000
70
9
0
VERTEX
5
3D2
330
3D0
100
AcDbEntity
8
Eagleview - 2D Roof Facets
6
Continuous
100
AcDbVertex
100
AcDb3dPolylineVertex
10
1.833808
20
-229.522209
30
0.000001
70
32
0
VERTEX
5
3D3
330
3D0
100
AcDbEntity
8
Eagleview - 2D Roof Facets
6
Continuous
100
AcDbVertex
100
AcDb3dPolylineVertex
10
0.833808
20
-229.522208
30
0.000001
70
32
0
SEQEND
5
3D1
330
3D0
100
AcDbEntity
1001
EVT
1002
{
1000
LineDesc
1000
P173-OTHER 
1002
}
0
POLYLINE
5
3D4
330
1C
100
AcDbEntity
8
Eagleview - 2D Roof Facets
6
Continuous
420
16711935
100
AcDb3dPolyline
10
0.0
20
0.0
30
0.000000
70
9
0
VERTEX
5
3D6
330
3D4
100
AcDbEntity
8
Eagleview - 2D Roof Facets
6
Continuous
100
AcDbVertex
100
AcDb3dPolylineVertex
10
0.833808
20
-229.522208
30
0.000001
70
32
0
VERTEX
5
3D7
330
3D4
100
AcDbEntity
8
Eagleview - 2D Roof Facets
6
Continuous
100
AcDbVertex
100
AcDb3dPolylineVertex
10
0.833808
20
-228.522209
30
0.000000
70
32
0
SEQEND
5
3D5
330
3D4
100
AcDbEntity
1001
EVT
1002
{
1000
LineDesc
1000
P174-OTHER 
1002
}
0
POLYLINE
5
3D8
330
1C
100
AcDbEntity
8
Eagleview - 2D Roof Facets
6
Continuous
420
16711935
100
AcDb3dPolyline
10
0.0
20
0.0
30
0.000000
70
9
0
VERTEX
5
3DA
330
3D8
100
AcDbEntity
8
Eagleview - 2D Roof Facets
6
Continuous
100
AcDbVertex
100
AcDb3dPolylineVertex
10
0.833808
20
-228.522209
30
0.000000
70
32
0
VERTEX
5
3DB
330
3D8
100
AcDbEntity
8
Eagleview - 2D Roof Facets
6
Continuous
100
AcDbVertex
100
AcDb3dPolylineVertex
10
1.833807
20
-228.522210
30
0.000001
70
32
0
SEQEND
5
3D9
330
3D8
100
AcDbEntity
1001
EVT
1002
{
1000
LineDesc
1000
P175-OTHER 
1002
}
0
POLYLINE
5
3DC
330
1C
100
AcDbEntity
8
Eagleview - 2D Roof Facets
6
Continuous
420
16711935
100
AcDb3dPolyline
10
0.0
20
0.0
30
0.000000
70
9
0
VERTEX
5
3DE
330
3DC
100
AcDbEntity
8
Eagleview - 2D Roof Facets
6
Continuous
100
AcDbVertex
100
AcDb3dPolylineVertex
10
5.140031
20
-101.833059
30
0.000001
70
32
0
VERTEX
5
3DF
330
3DC
100
AcDbEntity
8
Eagleview - 2D Roof Facets
6
Continuous
100
AcDbVertex
100
AcDb3dPolylineVertex
10
5.140030
20
-102.833059
30
0.000002
70
32
0
SEQEND
5
3DD
330
3DC
100
AcDbEntity
1001
EVT
1002
{
1000
LineDesc
1000
P176-OTHER 
1002
}
0
POLYLINE
5
3E0
330
1C
100
AcDbEntity
8
Eagleview - 2D Roof Facets
6
Continuous
420
16711935
100
AcDb3dPolyline
10
0.0
20
0.0
30
0.000000
70
9
0
VERTEX
5
3E2
330
3E0
100
AcDbEntity
8
Eagleview - 2D Roof Facets
6
Continuous
100
AcDbVertex
100
AcDb3dPolylineVertex
10
5.140030
20
-102.833059
30
0.000002
70
32
0
VERTEX
5
3E3
330
3E0
100
AcDbEntity
8
Eagleview - 2D Roof Facets
6
Continuous
100
AcDbVertex
100
AcDb3dPolylineVertex
10
4.140030
20
-102.833059
30
0.000002
70
32
0
SEQEND
5
3E1
330
3E0
100
AcDbEntity
1001
EVT
1002
{
1000
LineDesc
1000
P177-OTHER 
1002
}
0
POLYLINE
5
3E4
330
1C
100
AcDbEntity
8
Eagleview - 2D Roof Facets
6
Continuous
420
16711935
100
AcDb3dPolyline
10
0.0
20
0.0
30
0.000000
70
9
0
VERTEX
5
3E6
330
3E4
100
AcDbEntity
8
Eagleview - 2D Roof Facets
6
Continuous
100
AcDbVertex
100
AcDb3dPolylineVertex
10
4.140030
20
-102.833059
30
0.000002
70
32
0
VERTEX
5
3E7
330
3E4
100
AcDbEntity
8
Eagleview - 2D Roof Facets
6
Continuous
100
AcDbVertex
100
AcDb3dPolylineVertex
10
4.140033
20
-101.833061
30
0.000003
70
32
0
SEQEND
5
3E5
330
3E4
100
AcDbEntity
1001
EVT
1002
{
1000
LineDesc
1000
P178-OTHER 
1002
}
0
POLYLINE
5
3E8
330
1C
100
AcDbEntity
8
Eagleview - 2D Roof Facets
6
Continuous
420
16711935
100
AcDb3dPolyline
10
0.0
20
0.0
30
0.000000
70
9
0
VERTEX
5
3EA
330
3E8
100
AcDbEntity
8
Eagleview - 2D Roof Facets
6
Continuous
100
AcDbVertex
100
AcDb3dPolylineVertex
10
4.140033
20
-101.833061
30
0.000003
70
32
0
VERTEX
5
3EB
330
3E8
100
AcDbEntity
8
Eagleview - 2D Roof Facets
6
Continuous
100
AcDbVertex
100
AcDb3dPolylineVertex
10
5.140031
20
-101.833059
30
0.000001
70
32
0
SEQEND
5
3E9
330
3E8
100
AcDbEntity
1001
EVT
1002
{
1000
LineDesc
1000
P179-OTHER 
1002
}
0
POLYLINE
5
3EC
330
1C
100
AcDbEntity
8
Eagleview - 2D Roof Facets
6
Continuous
420
16711935
100
AcDb3dPolyline
10
0.0
20
0.0
30
0.000000
70
9
0
VERTEX
5
3EE
330
3EC
100
AcDbEntity
8
Eagleview - 2D Roof Facets
6
Continuous
100
AcDbVertex
100
AcDb3dPolylineVertex
10
7.544457
20
-101.920651
30
0.000002
70
32
0
VERTEX
5
3EF
330
3EC
100
AcDbEntity
8
Eagleview - 2D Roof Facets
6
Continuous
100
AcDbVertex
100
AcDb3dPolylineVertex
10
7.544458
20
-102.920651
30
0.000002
70
32
0
SEQEND
5
3ED
330
3EC
100
AcDbEntity
1001
EVT
1002
{
1000
LineDesc
1000
P180-OTHER 
1002
}
0
POLYLINE
5
3F0
330
1C
100
AcDbEntity
8
Eagleview - 2D Roof Facets
6
Continuous
420
16711935
100
AcDb3dPolyline
10
0.0
20
0.0
30
0.000000
70
9
0
VERTEX
5
3F2
330
3F0
100
AcDbEntity
8
Eagleview - 2D Roof Facets
6
Continuous
100
AcDbVertex
100
AcDb3dPolylineVertex
10
7.544458
20
-102.920651
30
0.000002
70
32
0
VERTEX
5
3F3
330
3F0
100
AcDbEntity
8
Eagleview - 2D Roof Facets
6
Continuous
100
AcDbVertex
100
AcDb3dPolylineVertex
10
6.544457
20
-102.920651
30
0.000002
70
32
0
SEQEND
5
3F1
330
3F0
100
AcDbEntity
1001
EVT
1002
{
1000
LineDesc
1000
P181-OTHER 
1002
}
0
POLYLINE
5
3F4
330
1C
100
AcDbEntity
8
Eagleview - 2D Roof Facets
6
Continuous
420
16711935
100
AcDb3dPolyline
10
0.0
20
0.0
30
0.000000
70
9
0
VERTEX
5
3F6
330
3F4
100
AcDbEntity
8
Eagleview - 2D Roof Facets
6
Continuous
100
AcDbVertex
100
AcDb3dPolylineVertex
10
6.544457
20
-102.920651
30
0.000002
70
32
0
VERTEX
5
3F7
330
3F4
100
AcDbEntity
8
Eagleview - 2D Roof Facets
6
Continuous
100
AcDbVertex
100
AcDb3dPolylineVertex
10
6.544457
20
-101.920651
30
0.000002
70
32
0
SEQEND
5
3F5
330
3F4
100
AcDbEntity
1001
EVT
1002
{
1000
LineDesc
1000
P182-OTHER 
1002
}
0
POLYLINE
5
3F8
330
1C
100
AcDbEntity
8
Eagleview - 2D Roof Facets
6
Continuous
420
16711935
100
AcDb3dPolyline
10
0.0
20
0.0
30
0.000000
70
9
0
VERTEX
5
3FA
330
3F8
100
AcDbEntity
8
Eagleview - 2D Roof Facets
6
Continuous
100
AcDbVertex
100
AcDb3dPolylineVertex
10
6.544457
20
-101.920651
30
0.000002
70
32
0
VERTEX
5
3FB
330
3F8
100
AcDbEntity
8
Eagleview - 2D Roof Facets
6
Continuous
100
AcDbVertex
100
AcDb3dPolylineVertex
10
7.544457
20
-101.920651
30
0.000002
70
32
0
SEQEND
5
3F9
330
3F8
100
AcDbEntity
1001
EVT
1002
{
1000
LineDesc
1000
P183-OTHER 
1002
}
0
POLYLINE
5
3FC
330
1C
100
AcDbEntity
8
Eagleview - 2D Roof Facets
6
Continuous
420
16711935
100
AcDb3dPolyline
10
0.0
20
0.0
30
0.000000
70
9
0
VERTEX
5
3FE
330
3FC
100
AcDbEntity
8
Eagleview - 2D Roof Facets
6
Continuous
100
AcDbVertex
100
AcDb3dPolylineVertex
10
50.556049
20
-229.791611
30
-0.000000
70
32
0
VERTEX
5
3FF
330
3FC
100
AcDbEntity
8
Eagleview - 2D Roof Facets
6
Continuous
100
AcDbVertex
100
AcDb3dPolylineVertex
10
50.556051
20
-230.791610
30
-0.000000
70
32
0
SEQEND
5
3FD
330
3FC
100
AcDbEntity
1001
EVT
1002
{
1000
LineDesc
1000
P184-OTHER 
1002
}
0
POLYLINE
5
400
330
1C
100
AcDbEntity
8
Eagleview - 2D Roof Facets
6
Continuous
420
16711935
100
AcDb3dPolyline
10
0.0
20
0.0
30
0.000000
70
9
0
VERTEX
5
402
330
400
100
AcDbEntity
8
Eagleview - 2D Roof Facets
6
Continuous
100
AcDbVertex
100
AcDb3dPolylineVertex
10
50.556051
20
-230.791610
30
-0.000000
70
32
0
VERTEX
5
403
330
400
100
AcDbEntity
8
Eagleview - 2D Roof Facets
6
Continuous
100
AcDbVertex
100
AcDb3dPolylineVertex
10
49.556049
20
-230.791611
30
0.000000
70
32
0
SEQEND
5
401
330
400
100
AcDbEntity
1001
EVT
1002
{
1000
LineDesc
1000
P185-OTHER 
1002
}
0
POLYLINE
5
404
330
1C
100
AcDbEntity
8
Eagleview - 2D Roof Facets
6
Continuous
420
16711935
100
AcDb3dPolyline
10
0.0
20
0.0
30
0.000000
70
9
0
VERTEX
5
406
330
404
100
AcDbEntity
8
Eagleview - 2D Roof Facets
6
Continuous
100
AcDbVertex
100
AcDb3dPolylineVertex
10
49.556049
20
-230.791611
30
0.000000
70
32
0
VERTEX
5
407
330
404
100
AcDbEntity
8
Eagleview - 2D Roof Facets
6
Continuous
100
AcDbVertex
100
AcDb3dPolylineVertex
10
49.556051
20
-229.791611
30
-0.000001
70
32
0
SEQEND
5
405
330
404
100
AcDbEntity
1001
EVT
1002
{
1000
LineDesc
1000
P186-OTHER 
1002
}
0
POLYLINE
5
408
330
1C
100
AcDbEntity
8
Eagleview - 2D Roof Facets
6
Continuous
420
16711935
100
AcDb3dPolyline
10
0.0
20
0.0
30
0.000000
70
9
0
VERTEX
5
40A
330
408
100
AcDbEntity
8
Eagleview - 2D Roof Facets
6
Continuous
100
AcDbVertex
100
AcDb3dPolylineVertex
10
49.556051
20
-229.791611
30
-0.000001
70
32
0
VERTEX
5
40B
330
408
100
AcDbEntity
8
Eagleview - 2D Roof Facets
6
Continuous
100
AcDbVertex
100
AcDb3dPolylineVertex
10
50.556049
20
-229.791611
30
-0.000000
70
32
0
SEQEND
5
409
330
408
100
AcDbEntity
1001
EVT
1002
{
1000
LineDesc
1000
P187-OTHER 
1002
}
0
POLYLINE
5
40C
330
1C
100
AcDbEntity
8
Eagleview - 2D Roof Facets
6
Continuous
420
16711935
100
AcDb3dPolyline
10
0.0
20
0.0
30
0.000000
70
9
0
VERTEX
5
40E
330
40C
100
AcDbEntity
8
Eagleview - 2D Roof Facets
6
Continuous
100
AcDbVertex
100
AcDb3dPolylineVertex
10
8.835108
20
-101.206430
30
0.000001
70
32
0
VERTEX
5
40F
330
40C
100
AcDbEntity
8
Eagleview - 2D Roof Facets
6
Continuous
100
AcDbVertex
100
AcDb3dPolylineVertex
10
8.835108
20
-102.206430
30
0.000001
70
32
0
SEQEND
5
40D
330
40C
100
AcDbEntity
1001
EVT
1002
{
1000
LineDesc
1000
P188-OTHER 
1002
}
0
POLYLINE
5
410
330
1C
100
AcDbEntity
8
Eagleview - 2D Roof Facets
6
Continuous
420
16711935
100
AcDb3dPolyline
10
0.0
20
0.0
30
0.000000
70
9
0
VERTEX
5
412
330
410
100
AcDbEntity
8
Eagleview - 2D Roof Facets
6
Continuous
100
AcDbVertex
100
AcDb3dPolylineVertex
10
8.835108
20
-102.206430
30
0.000001
70
32
0
VERTEX
5
413
330
410
100
AcDbEntity
8
Eagleview - 2D Roof Facets
6
Continuous
100
AcDbVertex
100
AcDb3dPolylineVertex
10
7.835106
20
-102.206430
30
0.000002
70
32
0
SEQEND
5
411
330
410
100
AcDbEntity
1001
EVT
1002
{
1000
LineDesc
1000
P189-OTHER 
1002
}
0
POLYLINE
5
414
330
1C
100
AcDbEntity
8
Eagleview - 2D Roof Facets
6
Continuous
420
16711935
100
AcDb3dPolyline
10
0.0
20
0.0
30
0.000000
70
9
0
VERTEX
5
416
330
414
100
AcDbEntity
8
Eagleview - 2D Roof Facets
6
Continuous
100
AcDbVertex
100
AcDb3dPolylineVertex
10
7.835106
20
-102.206430
30
0.000002
70
32
0
VERTEX
5
417
330
414
100
AcDbEntity
8
Eagleview - 2D Roof Facets
6
Continuous
100
AcDbVertex
100
AcDb3dPolylineVertex
10
7.835107
20
-101.206430
30
0.000001
70
32
0
SEQEND
5
415
330
414
100
AcDbEntity
1001
EVT
1002
{
1000
LineDesc
1000
P190-OTHER 
1002
}
0
POLYLINE
5
418
330
1C
100
AcDbEntity
8
Eagleview - 2D Roof Facets
6
Continuous
420
16711935
100
AcDb3dPolyline
10
0.0
20
0.0
30
0.000000
70
9
0
VERTEX
5
41A
330
418
100
AcDbEntity
8
Eagleview - 2D Roof Facets
6
Continuous
100
AcDbVertex
100
AcDb3dPolylineVertex
10
7.835107
20
-101.206430
30
0.000001
70
32
0
VERTEX
5
41B
330
418
100
AcDbEntity
8
Eagleview - 2D Roof Facets
6
Continuous
100
AcDbVertex
100
AcDb3dPolylineVertex
10
8.835108
20
-101.206430
30
0.000001
70
32
0
SEQEND
5
419
330
418
100
AcDbEntity
1001
EVT
1002
{
1000
LineDesc
1000
P191-OTHER 
1002
}
0
TEXT
5
41C
330
1C
100
AcDbEntity
8
defpoints
6
Continuous
100
AcDbText
10
0.000000
20
14.362778
30
0.000000
40
1.000000
1
2603 park view dr, Austin, TX, 78757
100
AcDbText
0
ENDSEC
0
SECTION
2
OBJECTS
0
DICTIONARY
5
26
100
AcDbDictionary
280
1
281
32524
3
ACAD_GROUP
350
27
0
DICTIONARY
5
27
330
26
100
AcDbDictionary
280
1
281
775172145
0
DICTIONARY
5
41D
330
1C
100
AcDbDictionary
280
1
281
1
3
ACAD_SORTENTS
350
41E
0
SORTENTSTABLE
5
41E
102
{ACAD_REACTORS
330
41D
102
}
330
41D
100
AcDbSortentsTable
330
1C
0
ENDSEC
0
EOF
